ISO-10303-21;
HEADER;
FILE_DESCRIPTION (( 'STEP AP203' ),
    '1' );
FILE_NAME ('03-3210.STEP',
    '2023-07-31T00:25:10',
    ( 'USER' ),
    ( 'Hewlett-Packard Company' ),
    'SwSTEP 2.0',
    'SolidWorks 2014',
    '' );
FILE_SCHEMA (( 'CONFIG_CONTROL_DESIGN' ));
ENDSEC;

DATA;
#1 = CALENDAR_DATE ( 2023, 31, 7 ) ;
#2 = ORIENTED_EDGE ( 'NONE', *, *, #43, .F. ) ;
#3 = ORIENTED_EDGE ( 'NONE', *, *, #234, .T. ) ;
#4 = ORIENTED_EDGE ( 'NONE', *, *, #182, .T. ) ;
#5 = EDGE_LOOP ( 'NONE', ( #105, #100, #54, #360 ) ) ;
#6 = CARTESIAN_POINT ( 'NONE',  ( -53.49999999999998600, -6.000000000000000000, 7.347880794884115800E-016 ) ) ;
#7 = AXIS2_PLACEMENT_3D ( 'NONE', #155, #56, #339 ) ;
#8 = CIRCLE ( 'NONE', #76, 5.999999999999996400 ) ;
#9 = EDGE_LOOP ( 'NONE', ( #108, #59, #3, #38 ) ) ;
#10 = ORIENTED_EDGE ( 'NONE', *, *, #20, .T. ) ;
#11 = ORIENTED_EDGE ( 'NONE', *, *, #55, .T. ) ;
#12 =( NAMED_UNIT ( * ) PLANE_ANGLE_UNIT ( ) SI_UNIT ( $, .RADIAN. ) );
#13 = VERTEX_POINT ( 'NONE', #131 ) ;
#14 = CARTESIAN_POINT ( 'NONE',  ( 0.9999999999999991100, -6.000000000000000000, 7.347880794884119700E-016 ) ) ;
#15 = DIRECTION ( 'NONE',  ( 1.000000000000000000, 6.123233995736766000E-017, -0.0000000000000000000 ) ) ;
#16 = DATE_AND_TIME ( #99, #171 ) ;
#17 = ORIENTED_EDGE ( 'NONE', *, *, #253, .T. ) ;
#18 = ORIENTED_EDGE ( 'NONE', *, *, #159, .T. ) ;
#19 = EDGE_LOOP ( 'NONE', ( #81, #10 ) ) ;
#20 = EDGE_CURVE ( 'NONE', #190, #309, #214, .T. ) ;
#21 = CARTESIAN_POINT ( 'NONE',  ( 50.20000000000000300, 0.0000000000000000000, 5.200000000000000200 ) ) ;
#22 = LINE ( 'NONE', #322, #324 ) ;
#23 = APPLICATION_CONTEXT ( 'configuration controlled 3d designs of mechanical parts and assemblies' ) ;
#24 = APPROVAL ( #355, 'UNSPECIFIED' ) ;
#25 = APPROVAL_DATE_TIME ( #107, #24 ) ;
#26 = DATE_TIME_ROLE ( 'creation_date' ) ;
#27 = ORIENTED_EDGE ( 'NONE', *, *, #316, .T. ) ;
#28 = CARTESIAN_POINT ( 'NONE',  ( 0.0000000000000000000, 0.0000000000000000000, 0.0000000000000000000 ) ) ;
#29 = APPROVAL_STATUS ( 'not_yet_approved' ) ;
#30 = LINE ( 'NONE', #210, #308 ) ;
#31 = AXIS2_PLACEMENT_3D ( 'NONE', #254, #93, #279 ) ;
#32 = ORIENTED_EDGE ( 'NONE', *, *, #330, .F. ) ;
#33 = ORIENTED_EDGE ( 'NONE', *, *, #126, .F. ) ;
#34 = VERTEX_POINT ( 'NONE', #340 ) ;
#35 = ADVANCED_FACE ( 'NONE', ( #354 ), #133, .T. ) ;
#36 = APPROVAL_PERSON_ORGANIZATION ( #116, #24, #199 ) ;
#37 = CARTESIAN_POINT ( 'NONE',  ( -53.49999999999998600, 5.999999999999992900, 0.0000000000000000000 ) ) ;
#38 = ORIENTED_EDGE ( 'NONE', *, *, #55, .F. ) ;
#39 = VERTEX_POINT ( 'NONE', #74 ) ;
#40 = EDGE_LOOP ( 'NONE', ( #32, #68, #299, #41 ) ) ;
#41 = ORIENTED_EDGE ( 'NONE', *, *, #109, .F. ) ;
#42 = DIRECTION ( 'NONE',  ( -1.000000000000000000, -0.0000000000000000000, -0.0000000000000000000 ) ) ;
#43 = EDGE_CURVE ( 'NONE', #242, #39, #205, .T. ) ;
#44 = FACE_OUTER_BOUND ( 'NONE', #9, .T. ) ;
#45 = ORIENTED_EDGE ( 'NONE', *, *, #284, .F. ) ;
#46 = CARTESIAN_POINT ( 'NONE',  ( 50.20000000000000300, 6.368163355566236400E-016, -5.200000000000000200 ) ) ;
#47 = ORIENTED_EDGE ( 'NONE', *, *, #300, .T. ) ;
#48 = VERTEX_POINT ( 'NONE', #6 ) ;
#49 = DIRECTION ( 'NONE',  ( 1.000000000000000000, 6.123233995736766000E-017, -0.0000000000000000000 ) ) ;
#50 = CC_DESIGN_APPROVAL ( #24, ( #361 ) ) ;
#51 = CARTESIAN_POINT ( 'NONE',  ( 50.20000000000000300, 0.0000000000000000000, 0.0000000000000000000 ) ) ;
#52 = ORIENTED_EDGE ( 'NONE', *, *, #330, .T. ) ;
#53 = CARTESIAN_POINT ( 'NONE',  ( 51.00000000000000700, 0.0000000000000000000, 0.0000000000000000000 ) ) ;
#54 = ORIENTED_EDGE ( 'NONE', *, *, #126, .T. ) ;
#55 = EDGE_CURVE ( 'NONE', #160, #129, #285, .T. ) ;
#56 = DIRECTION ( 'NONE',  ( -1.000000000000000000, -0.0000000000000000000, -0.0000000000000000000 ) ) ;
#57 = CIRCLE ( 'NONE', #243, 0.8000000000000012700 ) ;
#58 = DIRECTION ( 'NONE',  ( -1.000000000000000000, -0.0000000000000000000, -0.0000000000000000000 ) ) ;
#59 = ORIENTED_EDGE ( 'NONE', *, *, #70, .T. ) ;
#60 = AXIS2_PLACEMENT_3D ( 'NONE', #77, #266, #310 ) ;
#61 = DIRECTION ( 'NONE',  ( 0.0000000000000000000, 0.0000000000000000000, 1.000000000000000000 ) ) ;
#62 = CALENDAR_DATE ( 2023, 31, 7 ) ;
#63 = AXIS2_PLACEMENT_3D ( 'NONE', #315, #15, #98 ) ;
#64 = FACE_OUTER_BOUND ( 'NONE', #5, .T. ) ;
#65 = FACE_OUTER_BOUND ( 'NONE', #19, .T. ) ;
#66 = ADVANCED_FACE ( 'NONE', ( #278 ), #203, .F. ) ;
#67 = CC_DESIGN_PERSON_AND_ORGANIZATION_ASSIGNMENT ( #304, #197, ( #361 ) ) ;
#68 = ORIENTED_EDGE ( 'NONE', *, *, #43, .T. ) ;
#69 = DIRECTION ( 'NONE',  ( -1.000000000000000000, 0.0000000000000000000, -0.0000000000000000000 ) ) ;
#70 = EDGE_CURVE ( 'NONE', #13, #180, #73, .T. ) ;
#71 = CARTESIAN_POINT ( 'NONE',  ( 0.0000000000000000000, 0.0000000000000000000, 0.0000000000000000000 ) ) ;
#72 = DATE_AND_TIME ( #142, #213 ) ;
#73 = CIRCLE ( 'NONE', #150, 6.000000000000000000 ) ;
#74 = CARTESIAN_POINT ( 'NONE',  ( -53.99999999999999300, 5.499999999999992900, 0.0000000000000000000 ) ) ;
#75 = DIRECTION ( 'NONE',  ( 0.0000000000000000000, 0.0000000000000000000, -1.000000000000000000 ) ) ;
#76 = AXIS2_PLACEMENT_3D ( 'NONE', #318, #162, #272 ) ;
#77 = CARTESIAN_POINT ( 'NONE',  ( 0.0000000000000000000, 0.0000000000000000000, 0.0000000000000000000 ) ) ;
#78 = DIRECTION ( 'NONE',  ( 0.0000000000000000000, 0.0000000000000000000, 1.000000000000000000 ) ) ;
#79 = DIRECTION ( 'NONE',  ( 0.0000000000000000000, 0.0000000000000000000, 1.000000000000000000 ) ) ;
#80 = PERSON_AND_ORGANIZATION ( #314, #257 ) ;
#81 = ORIENTED_EDGE ( 'NONE', *, *, #284, .T. ) ;
#82 = EDGE_LOOP ( 'NONE', ( #102, #17, #45, #343 ) ) ;
#83 = AXIS2_PLACEMENT_3D ( 'NONE', #97, #259, #124 ) ;
#84 = DIRECTION ( 'NONE',  ( 0.0000000000000000000, 0.0000000000000000000, 1.000000000000000000 ) ) ;
#85 = VECTOR ( 'NONE', #193, 1000.000000000000000 ) ;
#86 = CC_DESIGN_DATE_AND_TIME_ASSIGNMENT ( #16, #26, ( #361 ) ) ;
#87 = PERSON_AND_ORGANIZATION_ROLE ( 'classification_officer' ) ;
#88 = CARTESIAN_POINT ( 'NONE',  ( -53.49999999999998600, 5.999999999999992900, 0.0000000000000000000 ) ) ;
#89 = EDGE_CURVE ( 'NONE', #34, #125, #143, .T. ) ;
#90 = LOCAL_TIME ( 9, 25, 10.00000000000000000, #158 ) ;
#91 = ORIENTED_EDGE ( 'NONE', *, *, #89, .F. ) ;
#92 = CARTESIAN_POINT ( 'NONE',  ( 0.9999999999999983300, 6.000000000000000000, 0.0000000000000000000 ) ) ;
#93 = DIRECTION ( 'NONE',  ( -1.000000000000000000, -0.0000000000000000000, -0.0000000000000000000 ) ) ;
#94 = AXIS2_PLACEMENT_3D ( 'NONE', #195, #351, #170 ) ;
#95 = VECTOR ( 'NONE', #251, 1000.000000000000000 ) ;
#96 = ADVANCED_FACE ( 'NONE', ( #64 ), #333, .T. ) ;
#97 = CARTESIAN_POINT ( 'NONE',  ( -53.49999999999998600, -3.275930187719168800E-015, 0.0000000000000000000 ) ) ;
#98 = DIRECTION ( 'NONE',  ( -7.228014483236695800E-017, 1.000000000000000000, 0.0000000000000000000 ) ) ;
#99 = CALENDAR_DATE ( 2023, 31, 7 ) ;
#100 = ORIENTED_EDGE ( 'NONE', *, *, #89, .T. ) ;
#101 = CARTESIAN_POINT ( 'NONE',  ( 50.20000000000000300, 0.0000000000000000000, 0.0000000000000000000 ) ) ;
#102 = ORIENTED_EDGE ( 'NONE', *, *, #269, .T. ) ;
#103 = AXIS2_PLACEMENT_3D ( 'NONE', #328, #365, #146 ) ;
#104 = CYLINDRICAL_SURFACE ( 'NONE', #60, 6.000000000000000000 ) ;
#105 = ORIENTED_EDGE ( 'NONE', *, *, #141, .F. ) ;
#106 = PRODUCT_DEFINITION_FORMATION_WITH_SPECIFIED_SOURCE ( 'ANY', '', #156, .NOT_KNOWN. ) ;
#107 = DATE_AND_TIME ( #179, #249 ) ;
#108 = ORIENTED_EDGE ( 'NONE', *, *, #198, .F. ) ;
#109 = EDGE_CURVE ( 'NONE', #48, #268, #342, .T. ) ;
#110 = DIRECTION ( 'NONE',  ( 0.0000000000000000000, 0.0000000000000000000, 1.000000000000000000 ) ) ;
#111 = CYLINDRICAL_SURFACE ( 'NONE', #7, 6.000000000000000000 ) ;
#112 = CLOSED_SHELL ( 'NONE', ( #201, #145, #359, #326, #35, #302 ) ) ;
#113 = DIRECTION ( 'NONE',  ( 6.123233995736766000E-017, -1.000000000000000000, 0.0000000000000000000 ) ) ;
#114 = AXIS2_PLACEMENT_3D ( 'NONE', #323, #173, #352 ) ;
#115 = DIRECTION ( 'NONE',  ( 1.000000000000000000, 6.123233995736766000E-017, -0.0000000000000000000 ) ) ;
#116 = PERSON_AND_ORGANIZATION ( #314, #257 ) ;
#117 = APPROVAL_ROLE ( '' ) ;
#118 = ORIENTED_EDGE ( 'NONE', *, *, #212, .F. ) ;
#119 = CARTESIAN_POINT ( 'NONE',  ( -53.99999999999999300, -3.306546357697853300E-015, 0.0000000000000000000 ) ) ;
#120 = AXIS2_PLACEMENT_3D ( 'NONE', #181, #42, #231 ) ;
#121 = FACE_OUTER_BOUND ( 'NONE', #82, .T. ) ;
#122 = ADVANCED_FACE ( 'NONE', ( #271 ), #262, .T. ) ;
#123 = APPROVAL ( #221, 'UNSPECIFIED' ) ;
#124 = DIRECTION ( 'NONE',  ( 0.0000000000000000000, 1.000000000000000000, 0.0000000000000000000 ) ) ;
#125 = VERTEX_POINT ( 'NONE', #332 ) ;
#126 = EDGE_CURVE ( 'NONE', #125, #180, #200, .T. ) ;
#127 = FACE_OUTER_BOUND ( 'NONE', #290, .T. ) ;
#128 = DIRECTION ( 'NONE',  ( 0.0000000000000000000, 0.0000000000000000000, 1.000000000000000000 ) ) ;
#129 = VERTEX_POINT ( 'NONE', #329 ) ;
#130 = AXIS2_PLACEMENT_3D ( 'NONE', #294, #349, #110 ) ;
#131 = CARTESIAN_POINT ( 'NONE',  ( 50.20000000000000300, 7.347880794884120700E-016, -6.000000000000000000 ) ) ;
#132 = LOCAL_TIME ( 9, 25, 10.00000000000000000, #204 ) ;
#133 = CONICAL_SURFACE ( 'NONE', #83, 5.999999999999996400, 0.7853981633974415100 ) ;
#134 = DIRECTION ( 'NONE',  ( 0.7071067811865523500, 0.7071067811865426900, 0.0000000000000000000 ) ) ;
#135 = CARTESIAN_POINT ( 'NONE',  ( 3.673940397442059900E-016, -6.000000000000000000, 7.347880794884119700E-016 ) ) ;
#136 = EDGE_LOOP ( 'NONE', ( #148, #11 ) ) ;
#137 = CC_DESIGN_APPROVAL ( #123, ( #106 ) ) ;
#138 = EDGE_LOOP ( 'NONE', ( #258, #2 ) ) ;
#139 = PERSON_AND_ORGANIZATION_ROLE ( 'design_supplier' ) ;
#140 = CARTESIAN_POINT ( 'NONE',  ( -3.673940397442059900E-016, 6.000000000000000000, 0.0000000000000000000 ) ) ;
#141 = EDGE_CURVE ( 'NONE', #34, #13, #57, .T. ) ;
#142 = CALENDAR_DATE ( 2023, 31, 7 ) ;
#143 = CIRCLE ( 'NONE', #191, 5.200000000000000200 ) ;
#144 = CYLINDRICAL_SURFACE ( 'NONE', #187, 6.000000000000000000 ) ;
#145 = ADVANCED_FACE ( 'NONE', ( #127 ), #185, .T. ) ;
#146 = DIRECTION ( 'NONE',  ( 0.0000000000000000000, 1.000000000000000000, 0.0000000000000000000 ) ) ;
#147 = PERSON_AND_ORGANIZATION ( #314, #257 ) ;
#148 = ORIENTED_EDGE ( 'NONE', *, *, #212, .T. ) ;
#149 = DIRECTION ( 'NONE',  ( 1.000000000000000000, 6.123233995736766000E-017, -0.0000000000000000000 ) ) ;
#150 = AXIS2_PLACEMENT_3D ( 'NONE', #101, #260, #84 ) ;
#151 = DIRECTION ( 'NONE',  ( -1.000000000000000000, -0.0000000000000000000, -0.0000000000000000000 ) ) ;
#152 = FACE_OUTER_BOUND ( 'NONE', #138, .T. ) ;
#153 = PLANE ( 'NONE',  #94 ) ;
#154 = CC_DESIGN_PERSON_AND_ORGANIZATION_ASSIGNMENT ( #147, #295, ( #106 ) ) ;
#155 = CARTESIAN_POINT ( 'NONE',  ( 0.0000000000000000000, 0.0000000000000000000, 0.0000000000000000000 ) ) ;
#156 = PRODUCT ( '03-3210', '03-3210', '', ( #348 ) ) ;
#157 = DIRECTION ( 'NONE',  ( 0.0000000000000000000, -1.224646799147353200E-016, 1.000000000000000000 ) ) ;
#158 = COORDINATED_UNIVERSAL_TIME_OFFSET ( 9, 0, .AHEAD. ) ;
#159 = EDGE_CURVE ( 'NONE', #125, #34, #255, .T. ) ;
#160 = VERTEX_POINT ( 'NONE', #215 ) ;
#161 = CARTESIAN_POINT ( 'NONE',  ( 50.20000000000000300, 0.0000000000000000000, 0.0000000000000000000 ) ) ;
#162 = DIRECTION ( 'NONE',  ( 1.000000000000000000, 6.123233995736766000E-017, -0.0000000000000000000 ) ) ;
#163 = LINE ( 'NONE', #140, #85 ) ;
#164 = MANIFOLD_SOLID_BREP ( 'È¸Àü4', #112 ) ;
#165 = DIRECTION ( 'NONE',  ( 0.0000000000000000000, 1.000000000000000000, 0.0000000000000000000 ) ) ;
#166 = AXIS2_PLACEMENT_3D ( 'NONE', #216, #319, #165 ) ;
#167 = CARTESIAN_POINT ( 'NONE',  ( 0.0000000000000000000, 0.0000000000000000000, 0.0000000000000000000 ) ) ;
#168 = ORIENTED_EDGE ( 'NONE', *, *, #159, .F. ) ;
#169 = DESIGN_CONTEXT ( 'detailed design', #23, 'design' ) ;
#170 = DIRECTION ( 'NONE',  ( 0.0000000000000000000, 0.0000000000000000000, -1.000000000000000000 ) ) ;
#171 = LOCAL_TIME ( 9, 25, 10.00000000000000000, #241 ) ;
#172 = EDGE_LOOP ( 'NONE', ( #334, #305, #47, #362 ) ) ;
#173 = DIRECTION ( 'NONE',  ( 1.000000000000000000, 6.123233995736766000E-017, -0.0000000000000000000 ) ) ;
#174 = APPLICATION_PROTOCOL_DEFINITION ( 'international standard', 'config_control_design', 1994, #23 ) ;
#175 = AXIS2_PLACEMENT_3D ( 'NONE', #235, #69, #261 ) ;
#176 = CIRCLE ( 'NONE', #31, 6.000000000000000000 ) ;
#177 = ADVANCED_FACE ( 'NONE', ( #44 ), #111, .T. ) ;
#178 = CC_DESIGN_PERSON_AND_ORGANIZATION_ASSIGNMENT ( #80, #139, ( #106 ) ) ;
#179 = CALENDAR_DATE ( 2023, 31, 7 ) ;
#180 = VERTEX_POINT ( 'NONE', #208 ) ;
#181 = CARTESIAN_POINT ( 'NONE',  ( 0.9999999999999997800, 0.0000000000000000000, 0.0000000000000000000 ) ) ;
#182 = EDGE_CURVE ( 'NONE', #180, #13, #317, .T. ) ;
#183 = EDGE_LOOP ( 'NONE', ( #168, #91 ) ) ;
#184 = DIRECTION ( 'NONE',  ( 0.0000000000000000000, 1.000000000000000000, 0.0000000000000000000 ) ) ;
#185 = CONICAL_SURFACE ( 'NONE', #291, 5.999999999999996400, 0.7853981633974415100 ) ;
#186 = DIRECTION ( 'NONE',  ( -1.000000000000000000, -0.0000000000000000000, -0.0000000000000000000 ) ) ;
#187 = AXIS2_PLACEMENT_3D ( 'NONE', #28, #298, #223 ) ;
#188 =( NAMED_UNIT ( * ) SI_UNIT ( $, .STERADIAN. ) SOLID_ANGLE_UNIT ( ) );
#189 = PERSON_AND_ORGANIZATION ( #314, #257 ) ;
#190 = VERTEX_POINT ( 'NONE', #14 ) ;
#191 = AXIS2_PLACEMENT_3D ( 'NONE', #335, #151, #306 ) ;
#192 = FACE_OUTER_BOUND ( 'NONE', #136, .T. ) ;
#193 = DIRECTION ( 'NONE',  ( 1.000000000000000000, 6.123233995736766000E-017, -0.0000000000000000000 ) ) ;
#194 = PERSON_AND_ORGANIZATION_ROLE ( 'design_owner' ) ;
#195 = CARTESIAN_POINT ( 'NONE',  ( 1.000000000000000400, 1.807003620809175600E-016, 0.0000000000000000000 ) ) ;
#196 = SECURITY_CLASSIFICATION ( '', '', #247 ) ;
#197 = PERSON_AND_ORGANIZATION_ROLE ( 'creator' ) ;
#198 = EDGE_CURVE ( 'NONE', #13, #160, #30, .T. ) ;
#199 = APPROVAL_ROLE ( '' ) ;
#200 = CIRCLE ( 'NONE', #264, 0.8000000000000012700 ) ;
#201 = ADVANCED_FACE ( 'NONE', ( #121 ), #104, .T. ) ;
#202 = CARTESIAN_POINT ( 'NONE',  ( -53.49999999999998600, -6.000000000000000000, 7.347880794884115800E-016 ) ) ;
#203 = PLANE ( 'NONE',  #175 ) ;
#204 = COORDINATED_UNIVERSAL_TIME_OFFSET ( 9, 0, .AHEAD. ) ;
#205 = CIRCLE ( 'NONE', #103, 5.499999999999996400 ) ;
#206 = AXIS2_PLACEMENT_3D ( 'NONE', #237, #49, #207 ) ;
#207 = DIRECTION ( 'NONE',  ( 0.0000000000000000000, 1.000000000000000000, 0.0000000000000000000 ) ) ;
#208 = CARTESIAN_POINT ( 'NONE',  ( 50.20000000000000300, 0.0000000000000000000, 6.000000000000000000 ) ) ;
#209 = VECTOR ( 'NONE', #134, 1000.000000000000000 ) ;
#210 = CARTESIAN_POINT ( 'NONE',  ( 0.0000000000000000000, 7.347880794884119700E-016, -6.000000000000000000 ) ) ;
#211 = CC_DESIGN_PERSON_AND_ORGANIZATION_ASSIGNMENT ( #353, #87, ( #196 ) ) ;
#212 = EDGE_CURVE ( 'NONE', #129, #160, #176, .T. ) ;
#213 = LOCAL_TIME ( 9, 25, 10.00000000000000000, #283 ) ;
#214 = CIRCLE ( 'NONE', #63, 6.000000000000000000 ) ;
#215 = CARTESIAN_POINT ( 'NONE',  ( 0.9999999999999997800, 7.347880794884119700E-016, -6.000000000000000000 ) ) ;
#216 = CARTESIAN_POINT ( 'NONE',  ( -53.99999999999999300, -3.306546357697853300E-015, 0.0000000000000000000 ) ) ;
#217 = AXIS2_PLACEMENT_3D ( 'NONE', #119, #346, #113 ) ;
#218 = CIRCLE ( 'NONE', #166, 5.499999999999996400 ) ;
#219 = APPLICATION_CONTEXT ( 'configuration controlled 3d designs of mechanical parts and assemblies' ) ;
#220 = APPLICATION_PROTOCOL_DEFINITION ( 'international standard', 'config_control_design', 1994, #219 ) ;
#221 = APPROVAL_STATUS ( 'not_yet_approved' ) ;
#222 = APPROVAL_DATE_TIME ( #289, #123 ) ;
#223 = DIRECTION ( 'NONE',  ( -6.123233995736766000E-017, 1.000000000000000000, 0.0000000000000000000 ) ) ;
#224 = ORIENTED_EDGE ( 'NONE', *, *, #234, .F. ) ;
#225 = APPROVAL_ROLE ( '' ) ;
#226 = AXIS2_PLACEMENT_3D ( 'NONE', #161, #58, #128 ) ;
#227 = MANIFOLD_SOLID_BREP ( 'È¸Àü3', #358 ) ;
#228 = LINE ( 'NONE', #37, #209 ) ;
#229 = ADVANCED_FACE ( 'NONE', ( #192 ), #153, .F. ) ;
#230 = CC_DESIGN_DATE_AND_TIME_ASSIGNMENT ( #72, #275, ( #196 ) ) ;
#231 = DIRECTION ( 'NONE',  ( 0.0000000000000000000, 0.0000000000000000000, 1.000000000000000000 ) ) ;
#232 = APPROVAL_PERSON_ORGANIZATION ( #297, #123, #117 ) ;
#233 = ORIENTED_EDGE ( 'NONE', *, *, #182, .F. ) ;
#234 = EDGE_CURVE ( 'NONE', #180, #129, #22, .T. ) ;
#235 = CARTESIAN_POINT ( 'NONE',  ( 51.00000000000000700, 0.0000000000000000000, 0.0000000000000000000 ) ) ;
#236 = FACE_OUTER_BOUND ( 'NONE', #325, .T. ) ;
#237 = CARTESIAN_POINT ( 'NONE',  ( -53.49999999999998600, -3.275930187719168800E-015, 0.0000000000000000000 ) ) ;
#238 =( GEOMETRIC_REPRESENTATION_CONTEXT ( 3 ) GLOBAL_UNCERTAINTY_ASSIGNED_CONTEXT ( ( #286 ) ) GLOBAL_UNIT_ASSIGNED_CONTEXT ( ( #245, #12, #188 ) ) REPRESENTATION_CONTEXT ( 'NONE', 'WORKASPACE' ) );
#239 = DIRECTION ( 'NONE',  ( -1.000000000000000000, -0.0000000000000000000, -0.0000000000000000000 ) ) ;
#240 = DIRECTION ( 'NONE',  ( -1.000000000000000000, -0.0000000000000000000, -0.0000000000000000000 ) ) ;
#241 = COORDINATED_UNIVERSAL_TIME_OFFSET ( 9, 0, .AHEAD. ) ;
#242 = VERTEX_POINT ( 'NONE', #273 ) ;
#243 = AXIS2_PLACEMENT_3D ( 'NONE', #46, #313, #157 ) ;
#244 = TOROIDAL_SURFACE ( 'NONE', #130, 5.200000000000000200, 0.8000000000000012700 ) ;
#245 =( LENGTH_UNIT ( ) NAMED_UNIT ( * ) SI_UNIT ( .MILLI., .METRE. ) );
#246 = DIRECTION ( 'NONE',  ( 1.000000000000000000, 0.0000000000000000000, 0.0000000000000000000 ) ) ;
#247 = SECURITY_CLASSIFICATION_LEVEL ( 'unclassified' ) ;
#248 = APPROVAL ( #29, 'UNSPECIFIED' ) ;
#249 = LOCAL_TIME ( 9, 25, 10.00000000000000000, #311 ) ;
#250 = EDGE_LOOP ( 'NONE', ( #4, #265, #118, #224 ) ) ;
#251 = DIRECTION ( 'NONE',  ( 1.000000000000000000, 6.123233995736766000E-017, -0.0000000000000000000 ) ) ;
#252 = PLANE ( 'NONE',  #217 ) ;
#253 = EDGE_CURVE ( 'NONE', #48, #190, #301, .T. ) ;
#254 = CARTESIAN_POINT ( 'NONE',  ( 0.9999999999999997800, 0.0000000000000000000, 0.0000000000000000000 ) ) ;
#255 = CIRCLE ( 'NONE', #307, 5.200000000000000200 ) ;
#256 = AXIS2_PLACEMENT_3D ( 'NONE', #274, #115, #293 ) ;
#257 = ORGANIZATION ( 'UNSPECIFIED', 'UNSPECIFIED', '' ) ;
#258 = ORIENTED_EDGE ( 'NONE', *, *, #316, .F. ) ;
#259 = DIRECTION ( 'NONE',  ( 1.000000000000000000, 6.123233995736766000E-017, -0.0000000000000000000 ) ) ;
#260 = DIRECTION ( 'NONE',  ( -1.000000000000000000, -0.0000000000000000000, -0.0000000000000000000 ) ) ;
#261 = DIRECTION ( 'NONE',  ( -0.0000000000000000000, 0.0000000000000000000, 1.000000000000000000 ) ) ;
#262 = CYLINDRICAL_SURFACE ( 'NONE', #280, 6.000000000000000000 ) ;
#263 = ORIENTED_EDGE ( 'NONE', *, *, #269, .F. ) ;
#264 = AXIS2_PLACEMENT_3D ( 'NONE', #21, #303, #75 ) ;
#265 = ORIENTED_EDGE ( 'NONE', *, *, #198, .T. ) ;
#266 = DIRECTION ( 'NONE',  ( 1.000000000000000000, 6.123233995736766000E-017, -0.0000000000000000000 ) ) ;
#267 = CC_DESIGN_APPROVAL ( #248, ( #196 ) ) ;
#268 = VERTEX_POINT ( 'NONE', #88 ) ;
#269 = EDGE_CURVE ( 'NONE', #268, #48, #8, .T. ) ;
#270 = APPROVAL_DATE_TIME ( #331, #248 ) ;
#271 = FACE_OUTER_BOUND ( 'NONE', #250, .T. ) ;
#272 = DIRECTION ( 'NONE',  ( 0.0000000000000000000, 1.000000000000000000, 0.0000000000000000000 ) ) ;
#273 = CARTESIAN_POINT ( 'NONE',  ( -53.99999999999999300, -5.500000000000000000, 7.041719095097276900E-016 ) ) ;
#274 = CARTESIAN_POINT ( 'NONE',  ( 0.9999999999999988900, 6.000000000000000000, 0.0000000000000000000 ) ) ;
#275 = DATE_TIME_ROLE ( 'classification_date' ) ;
#276 = PLANE ( 'NONE',  #256 ) ;
#277 = APPROVAL_PERSON_ORGANIZATION ( #341, #248, #225 ) ;
#278 = FACE_OUTER_BOUND ( 'NONE', #183, .T. ) ;
#279 = DIRECTION ( 'NONE',  ( 0.0000000000000000000, 0.0000000000000000000, 1.000000000000000000 ) ) ;
#280 = AXIS2_PLACEMENT_3D ( 'NONE', #71, #186, #336 ) ;
#281 = ADVANCED_FACE ( 'NONE', ( #236 ), #244, .T. ) ;
#282 = CC_DESIGN_SECURITY_CLASSIFICATION ( #196, ( #106 ) ) ;
#283 = COORDINATED_UNIVERSAL_TIME_OFFSET ( 9, 0, .AHEAD. ) ;
#284 = EDGE_CURVE ( 'NONE', #309, #190, #292, .T. ) ;
#285 = CIRCLE ( 'NONE', #120, 6.000000000000000000 ) ;
#286 = UNCERTAINTY_MEASURE_WITH_UNIT (LENGTH_MEASURE( 1.000000000000000100E-005 ), #245, 'distance_accuracy_value', 'NONE');
#287 = FACE_OUTER_BOUND ( 'NONE', #172, .T. ) ;
#288 = DIRECTION ( 'NONE',  ( -1.000000000000000000, -0.0000000000000000000, -0.0000000000000000000 ) ) ;
#289 = DATE_AND_TIME ( #1, #90 ) ;
#290 = EDGE_LOOP ( 'NONE', ( #27, #52, #263, #312 ) ) ;
#291 = AXIS2_PLACEMENT_3D ( 'NONE', #327, #149, #184 ) ;
#292 = CIRCLE ( 'NONE', #114, 6.000000000000000000 ) ;
#293 = DIRECTION ( 'NONE',  ( -6.123233995736766000E-017, 1.000000000000000000, 0.0000000000000000000 ) ) ;
#294 = CARTESIAN_POINT ( 'NONE',  ( 50.20000000000000300, 0.0000000000000000000, 0.0000000000000000000 ) ) ;
#295 = PERSON_AND_ORGANIZATION_ROLE ( 'creator' ) ;
#296 = PRODUCT_RELATED_PRODUCT_CATEGORY ( 'detail', '', ( #156 ) ) ;
#297 = PERSON_AND_ORGANIZATION ( #314, #257 ) ;
#298 = DIRECTION ( 'NONE',  ( 1.000000000000000000, 6.123233995736766000E-017, -0.0000000000000000000 ) ) ;
#299 = ORIENTED_EDGE ( 'NONE', *, *, #356, .T. ) ;
#300 = EDGE_CURVE ( 'NONE', #268, #309, #163, .T. ) ;
#301 = LINE ( 'NONE', #135, #95 ) ;
#302 = ADVANCED_FACE ( 'NONE', ( #287 ), #144, .T. ) ;
#303 = DIRECTION ( 'NONE',  ( 0.0000000000000000000, -1.000000000000000000, 0.0000000000000000000 ) ) ;
#304 = PERSON_AND_ORGANIZATION ( #314, #257 ) ;
#305 = ORIENTED_EDGE ( 'NONE', *, *, #109, .T. ) ;
#306 = DIRECTION ( 'NONE',  ( 0.0000000000000000000, 0.0000000000000000000, 1.000000000000000000 ) ) ;
#307 = AXIS2_PLACEMENT_3D ( 'NONE', #53, #240, #79 ) ;
#308 = VECTOR ( 'NONE', #288, 1000.000000000000000 ) ;
#309 = VERTEX_POINT ( 'NONE', #92 ) ;
#310 = DIRECTION ( 'NONE',  ( -6.123233995736766000E-017, 1.000000000000000000, 0.0000000000000000000 ) ) ;
#311 = COORDINATED_UNIVERSAL_TIME_OFFSET ( 9, 0, .AHEAD. ) ;
#312 = ORIENTED_EDGE ( 'NONE', *, *, #356, .F. ) ;
#313 = DIRECTION ( 'NONE',  ( -0.0000000000000000000, 1.000000000000000000, 1.224646799147353200E-016 ) ) ;
#314 = PERSON ( 'UNSPECIFIED', 'UNSPECIFIED', 'UNSPECIFIED', ('UNSPECIFIED'), ('UNSPECIFIED'), ('UNSPECIFIED') ) ;
#315 = CARTESIAN_POINT ( 'NONE',  ( 0.9999999999999986700, 6.123233995736758600E-017, 0.0000000000000000000 ) ) ;
#316 = EDGE_CURVE ( 'NONE', #39, #242, #218, .T. ) ;
#317 = CIRCLE ( 'NONE', #344, 6.000000000000000000 ) ;
#318 = CARTESIAN_POINT ( 'NONE',  ( -53.49999999999998600, -3.275930187719168800E-015, 0.0000000000000000000 ) ) ;
#319 = DIRECTION ( 'NONE',  ( 1.000000000000000000, 6.123233995736766000E-017, -0.0000000000000000000 ) ) ;
#320 = AXIS2_PLACEMENT_3D ( 'NONE', #167, #61, #246 ) ;
#321 = SHAPE_DEFINITION_REPRESENTATION ( #363, #345 ) ;
#322 = CARTESIAN_POINT ( 'NONE',  ( 0.0000000000000000000, 0.0000000000000000000, 6.000000000000000000 ) ) ;
#323 = CARTESIAN_POINT ( 'NONE',  ( 0.9999999999999986700, 6.123233995736758600E-017, 0.0000000000000000000 ) ) ;
#324 = VECTOR ( 'NONE', #338, 1000.000000000000000 ) ;
#325 = EDGE_LOOP ( 'NONE', ( #18, #350, #233, #33 ) ) ;
#326 = ADVANCED_FACE ( 'NONE', ( #152 ), #252, .T. ) ;
#327 = CARTESIAN_POINT ( 'NONE',  ( -53.49999999999998600, -3.275930187719168800E-015, 0.0000000000000000000 ) ) ;
#328 = CARTESIAN_POINT ( 'NONE',  ( -53.99999999999999300, -3.306546357697853300E-015, 0.0000000000000000000 ) ) ;
#329 = CARTESIAN_POINT ( 'NONE',  ( 0.9999999999999997800, 0.0000000000000000000, 6.000000000000000000 ) ) ;
#330 = EDGE_CURVE ( 'NONE', #242, #48, #347, .T. ) ;
#331 = DATE_AND_TIME ( #62, #132 ) ;
#332 = CARTESIAN_POINT ( 'NONE',  ( 51.00000000000000700, 0.0000000000000000000, 5.200000000000000200 ) ) ;
#333 = TOROIDAL_SURFACE ( 'NONE', #226, 5.200000000000000200, 0.8000000000000012700 ) ;
#334 = ORIENTED_EDGE ( 'NONE', *, *, #253, .F. ) ;
#335 = CARTESIAN_POINT ( 'NONE',  ( 51.00000000000000700, 0.0000000000000000000, 0.0000000000000000000 ) ) ;
#336 = DIRECTION ( 'NONE',  ( 0.0000000000000000000, 0.0000000000000000000, 1.000000000000000000 ) ) ;
#337 = CC_DESIGN_PERSON_AND_ORGANIZATION_ASSIGNMENT ( #189, #194, ( #156 ) ) ;
#338 = DIRECTION ( 'NONE',  ( -1.000000000000000000, -0.0000000000000000000, -0.0000000000000000000 ) ) ;
#339 = DIRECTION ( 'NONE',  ( 0.0000000000000000000, 0.0000000000000000000, 1.000000000000000000 ) ) ;
#340 = CARTESIAN_POINT ( 'NONE',  ( 51.00000000000000700, 6.858022075225177600E-016, -5.200000000000000200 ) ) ;
#341 = PERSON_AND_ORGANIZATION ( #314, #257 ) ;
#342 = CIRCLE ( 'NONE', #206, 5.999999999999996400 ) ;
#343 = ORIENTED_EDGE ( 'NONE', *, *, #300, .F. ) ;
#344 = AXIS2_PLACEMENT_3D ( 'NONE', #51, #239, #78 ) ;
#345 = ADVANCED_BREP_SHAPE_REPRESENTATION ( '03-3210', ( #227, #164, #320 ), #238 ) ;
#346 = DIRECTION ( 'NONE',  ( -1.000000000000000000, -6.123233995736766000E-017, 0.0000000000000000000 ) ) ;
#347 = LINE ( 'NONE', #202, #357 ) ;
#348 = MECHANICAL_CONTEXT ( 'NONE', #219, 'mechanical' ) ;
#349 = DIRECTION ( 'NONE',  ( -1.000000000000000000, -0.0000000000000000000, -0.0000000000000000000 ) ) ;
#350 = ORIENTED_EDGE ( 'NONE', *, *, #141, .T. ) ;
#351 = DIRECTION ( 'NONE',  ( 1.000000000000000000, 0.0000000000000000000, 0.0000000000000000000 ) ) ;
#352 = DIRECTION ( 'NONE',  ( -7.228014483236695800E-017, 1.000000000000000000, 0.0000000000000000000 ) ) ;
#353 = PERSON_AND_ORGANIZATION ( #314, #257 ) ;
#354 = FACE_OUTER_BOUND ( 'NONE', #40, .T. ) ;
#355 = APPROVAL_STATUS ( 'not_yet_approved' ) ;
#356 = EDGE_CURVE ( 'NONE', #39, #268, #228, .T. ) ;
#357 = VECTOR ( 'NONE', #364, 1000.000000000000000 ) ;
#358 = CLOSED_SHELL ( 'NONE', ( #122, #281, #96, #177, #229, #66 ) ) ;
#359 = ADVANCED_FACE ( 'NONE', ( #65 ), #276, .T. ) ;
#360 = ORIENTED_EDGE ( 'NONE', *, *, #70, .F. ) ;
#361 = PRODUCT_DEFINITION ( 'UNKNOWN', '', #106, #169 ) ;
#362 = ORIENTED_EDGE ( 'NONE', *, *, #20, .F. ) ;
#363 = PRODUCT_DEFINITION_SHAPE ( 'NONE', 'NONE',  #361 ) ;
#364 = DIRECTION ( 'NONE',  ( 0.7071067811865523500, -0.7071067811865426900, 8.659560562354873700E-017 ) ) ;
#365 = DIRECTION ( 'NONE',  ( 1.000000000000000000, 6.123233995736766000E-017, -0.0000000000000000000 ) ) ;
ENDSEC;
END-ISO-10303-21;
