ISO-10303-21;
HEADER;
FILE_DESCRIPTION (( 'STEP AP203' ),
    '1' );
FILE_NAME ('03-3211.STEP',
    '2023-07-31T00:25:31',
    ( 'USER' ),
    ( 'Hewlett-Packard Company' ),
    'SwSTEP 2.0',
    'SolidWorks 2014',
    '' );
FILE_SCHEMA (( 'CONFIG_CONTROL_DESIGN' ));
ENDSEC;

DATA;
#1 = EDGE_CURVE ( 'NONE', #158, #180, #67, .T. ) ;
#2 = DIRECTION ( 'NONE',  ( -1.000000000000000000, -0.0000000000000000000, -0.0000000000000000000 ) ) ;
#3 = VECTOR ( 'NONE', #315, 1000.000000000000000 ) ;
#4 = ORIENTED_EDGE ( 'NONE', *, *, #105, .F. ) ;
#5 = MANIFOLD_SOLID_BREP ( 'È¸Àü3', #303 ) ;
#6 = CARTESIAN_POINT ( 'NONE',  ( -59.00000000000000000, -3.612708057484692400E-015, 0.0000000000000000000 ) ) ;
#7 = CARTESIAN_POINT ( 'NONE',  ( 60.60000000000000100, 0.0000000000000000000, 0.0000000000000000000 ) ) ;
#8 = CARTESIAN_POINT ( 'NONE',  ( -58.49999999999999300, 7.999999999999992900, 0.0000000000000000000 ) ) ;
#9 = CARTESIAN_POINT ( 'NONE',  ( -58.49999999999999300, -3.582091887506007800E-015, 0.0000000000000000000 ) ) ;
#10 = COORDINATED_UNIVERSAL_TIME_OFFSET ( 9, 0, .AHEAD. ) ;
#11 = ADVANCED_FACE ( 'NONE', ( #354 ), #324, .T. ) ;
#12 = APPROVAL ( #122, 'UNSPECIFIED' ) ;
#13 = APPROVAL_ROLE ( '' ) ;
#14 = EDGE_LOOP ( 'NONE', ( #156, #89, #119, #238 ) ) ;
#15 = DIRECTION ( 'NONE',  ( 0.0000000000000000000, 1.000000000000000000, 0.0000000000000000000 ) ) ;
#16 = CIRCLE ( 'NONE', #92, 7.999999999999996400 ) ;
#17 = ORIENTED_EDGE ( 'NONE', *, *, #349, .T. ) ;
#18 = AXIS2_PLACEMENT_3D ( 'NONE', #112, #312, #142 ) ;
#19 = LOCAL_TIME ( 9, 25, 31.00000000000000000, #94 ) ;
#20 = EDGE_LOOP ( 'NONE', ( #190, #74, #17, #44 ) ) ;
#21 = LINE ( 'NONE', #117, #3 ) ;
#22 = EDGE_CURVE ( 'NONE', #336, #351, #281, .T. ) ;
#23 = DIRECTION ( 'NONE',  ( 0.0000000000000000000, 0.0000000000000000000, 1.000000000000000000 ) ) ;
#24 = CARTESIAN_POINT ( 'NONE',  ( 1.000000000000000400, 1.355252715606881800E-016, 0.0000000000000000000 ) ) ;
#25 = CALENDAR_DATE ( 2023, 31, 7 ) ;
#26 = ORIENTED_EDGE ( 'NONE', *, *, #105, .T. ) ;
#27 = CC_DESIGN_APPROVAL ( #12, ( #352 ) ) ;
#28 = EDGE_CURVE ( 'NONE', #170, #77, #218, .T. ) ;
#29 = CARTESIAN_POINT ( 'NONE',  ( -58.49999999999999300, -3.582091887506007800E-015, 0.0000000000000000000 ) ) ;
#30 = FACE_OUTER_BOUND ( 'NONE', #356, .T. ) ;
#31 = DIRECTION ( 'NONE',  ( 1.000000000000000000, 6.123233995736767300E-017, -0.0000000000000000000 ) ) ;
#32 = DIRECTION ( 'NONE',  ( 0.0000000000000000000, 1.000000000000000000, 0.0000000000000000000 ) ) ;
#33 = AXIS2_PLACEMENT_3D ( 'NONE', #55, #259, #86 ) ;
#34 = CARTESIAN_POINT ( 'NONE',  ( -59.00000000000000000, 7.499999999999992900, 0.0000000000000000000 ) ) ;
#35 = PERSON_AND_ORGANIZATION ( #141, #109 ) ;
#36 = ORIENTED_EDGE ( 'NONE', *, *, #127, .T. ) ;
#37 = DIRECTION ( 'NONE',  ( 0.0000000000000000000, 0.0000000000000000000, 1.000000000000000000 ) ) ;
#38 = PERSON_AND_ORGANIZATION_ROLE ( 'design_supplier' ) ;
#39 = DIRECTION ( 'NONE',  ( -1.000000000000000000, -0.0000000000000000000, -0.0000000000000000000 ) ) ;
#40 = CIRCLE ( 'NONE', #288, 0.4000000000000019100 ) ;
#41 = ORIENTED_EDGE ( 'NONE', *, *, #349, .F. ) ;
#42 = AXIS2_PLACEMENT_3D ( 'NONE', #97, #61, #294 ) ;
#43 = CARTESIAN_POINT ( 'NONE',  ( 0.0000000000000000000, 0.0000000000000000000, 0.0000000000000000000 ) ) ;
#44 = ORIENTED_EDGE ( 'NONE', *, *, #28, .F. ) ;
#45 = CC_DESIGN_PERSON_AND_ORGANIZATION_ASSIGNMENT ( #169, #153, ( #352 ) ) ;
#46 = CIRCLE ( 'NONE', #159, 8.000000000000000000 ) ;
#47 = EDGE_CURVE ( 'NONE', #110, #129, #140, .T. ) ;
#48 = ORIENTED_EDGE ( 'NONE', *, *, #330, .T. ) ;
#49 = DIRECTION ( 'NONE',  ( -6.123233995736767300E-017, 1.000000000000000000, 0.0000000000000000000 ) ) ;
#50 = AXIS2_PLACEMENT_3D ( 'NONE', #363, #171, #334 ) ;
#51 = CARTESIAN_POINT ( 'NONE',  ( 60.60000000000000100, 0.0000000000000000000, 7.599999999999998800 ) ) ;
#52 = DIRECTION ( 'NONE',  ( -1.000000000000000000, -0.0000000000000000000, -0.0000000000000000000 ) ) ;
#53 = COORDINATED_UNIVERSAL_TIME_OFFSET ( 9, 0, .AHEAD. ) ;
#54 = VECTOR ( 'NONE', #39, 1000.000000000000000 ) ;
#55 = CARTESIAN_POINT ( 'NONE',  ( 0.9999999999999997800, 0.0000000000000000000, 0.0000000000000000000 ) ) ;
#56 = CARTESIAN_POINT ( 'NONE',  ( -58.49999999999999300, -3.582091887506007800E-015, 0.0000000000000000000 ) ) ;
#57 = LINE ( 'NONE', #8, #145 ) ;
#58 = DIRECTION ( 'NONE',  ( -6.123233995736767300E-017, 1.000000000000000000, 0.0000000000000000000 ) ) ;
#59 = EDGE_LOOP ( 'NONE', ( #161, #107, #342, #96 ) ) ;
#60 = MECHANICAL_CONTEXT ( 'NONE', #209, 'mechanical' ) ;
#61 = DIRECTION ( 'NONE',  ( 1.000000000000000000, 6.123233995736767300E-017, -0.0000000000000000000 ) ) ;
#62 = CC_DESIGN_DATE_AND_TIME_ASSIGNMENT ( #237, #343, ( #352 ) ) ;
#63 = PERSON_AND_ORGANIZATION_ROLE ( 'classification_officer' ) ;
#64 = DIRECTION ( 'NONE',  ( 1.000000000000000000, 6.123233995736767300E-017, -0.0000000000000000000 ) ) ;
#65 = LOCAL_TIME ( 9, 25, 31.00000000000000000, #138 ) ;
#66 = ADVANCED_FACE ( 'NONE', ( #214 ), #335, .T. ) ;
#67 = CIRCLE ( 'NONE', #42, 8.000000000000000000 ) ;
#68 = EDGE_CURVE ( 'NONE', #129, #272, #46, .T. ) ;
#69 = UNCERTAINTY_MEASURE_WITH_UNIT (LENGTH_MEASURE( 1.000000000000000100E-005 ), #120, 'distance_accuracy_value', 'NONE');
#70 = VECTOR ( 'NONE', #338, 1000.000000000000000 ) ;
#71 = ORIENTED_EDGE ( 'NONE', *, *, #47, .F. ) ;
#72 = AXIS2_PLACEMENT_3D ( 'NONE', #29, #364, #228 ) ;
#73 = APPROVAL_DATE_TIME ( #155, #104 ) ;
#74 = ORIENTED_EDGE ( 'NONE', *, *, #22, .T. ) ;
#75 = CYLINDRICAL_SURFACE ( 'NONE', #149, 8.000000000000000000 ) ;
#76 = AXIS2_PLACEMENT_3D ( 'NONE', #241, #64, #270 ) ;
#77 = VERTEX_POINT ( 'NONE', #208 ) ;
#78 = PLANE ( 'NONE',  #306 ) ;
#79 = DIRECTION ( 'NONE',  ( -0.0000000000000000000, 1.000000000000000000, 1.224646799147353200E-016 ) ) ;
#80 = APPROVAL_PERSON_ORGANIZATION ( #160, #104, #13 ) ;
#81 = EDGE_LOOP ( 'NONE', ( #36, #293, #4, #265 ) ) ;
#82 = DIRECTION ( 'NONE',  ( 0.0000000000000000000, 0.0000000000000000000, -1.000000000000000000 ) ) ;
#83 = ORIENTED_EDGE ( 'NONE', *, *, #68, .F. ) ;
#84 = PRODUCT_DEFINITION_FORMATION_WITH_SPECIFIED_SOURCE ( 'ANY', '', #255, .NOT_KNOWN. ) ;
#85 = EDGE_CURVE ( 'NONE', #332, #272, #200, .T. ) ;
#86 = DIRECTION ( 'NONE',  ( 0.0000000000000000000, 0.0000000000000000000, 1.000000000000000000 ) ) ;
#87 = DIRECTION ( 'NONE',  ( 0.0000000000000000000, 1.000000000000000000, 0.0000000000000000000 ) ) ;
#88 = VECTOR ( 'NONE', #172, 1000.000000000000000 ) ;
#89 = ORIENTED_EDGE ( 'NONE', *, *, #243, .T. ) ;
#90 = CARTESIAN_POINT ( 'NONE',  ( 0.0000000000000000000, 0.0000000000000000000, 0.0000000000000000000 ) ) ;
#91 = DIRECTION ( 'NONE',  ( -1.000000000000000000, -0.0000000000000000000, -0.0000000000000000000 ) ) ;
#92 = AXIS2_PLACEMENT_3D ( 'NONE', #56, #263, #87 ) ;
#93 = DIRECTION ( 'NONE',  ( 1.000000000000000000, 6.123233995736767300E-017, -0.0000000000000000000 ) ) ;
#94 = COORDINATED_UNIVERSAL_TIME_OFFSET ( 9, 0, .AHEAD. ) ;
#95 = APPLICATION_CONTEXT ( 'configuration controlled 3d designs of mechanical parts and assemblies' ) ;
#96 = ORIENTED_EDGE ( 'NONE', *, *, #1, .F. ) ;
#97 = CARTESIAN_POINT ( 'NONE',  ( 0.9999999999999983300, 6.123233995736757400E-017, 0.0000000000000000000 ) ) ;
#98 = ADVANCED_FACE ( 'NONE', ( #271 ), #275, .T. ) ;
#99 = APPROVAL_STATUS ( 'not_yet_approved' ) ;
#100 = FACE_OUTER_BOUND ( 'NONE', #362, .T. ) ;
#101 = AXIS2_PLACEMENT_3D ( 'NONE', #286, #236, #121 ) ;
#102 = LOCAL_TIME ( 9, 25, 31.00000000000000000, #178 ) ;
#103 = EDGE_LOOP ( 'NONE', ( #216, #253 ) ) ;
#104 = APPROVAL ( #182, 'UNSPECIFIED' ) ;
#105 = EDGE_CURVE ( 'NONE', #110, #332, #126, .T. ) ;
#106 = FACE_OUTER_BOUND ( 'NONE', #135, .T. ) ;
#107 = ORIENTED_EDGE ( 'NONE', *, *, #28, .T. ) ;
#108 = CARTESIAN_POINT ( 'NONE',  ( 61.00000000000000700, 9.552245033349354600E-016, -7.599999999999998800 ) ) ;
#109 = ORGANIZATION ( 'UNSPECIFIED', 'UNSPECIFIED', '' ) ;
#110 = VERTEX_POINT ( 'NONE', #331 ) ;
#111 = CARTESIAN_POINT ( 'NONE',  ( 61.00000000000000000, -5.569375370241337500E-014, 0.0000000000000000000 ) ) ;
#112 = CARTESIAN_POINT ( 'NONE',  ( 60.60000000000000100, 0.0000000000000000000, 0.0000000000000000000 ) ) ;
#113 = FACE_OUTER_BOUND ( 'NONE', #59, .T. ) ;
#114 = EDGE_LOOP ( 'NONE', ( #348, #223 ) ) ;
#115 = CARTESIAN_POINT ( 'NONE',  ( 0.9999999999999997800, 9.797174393178825700E-016, -8.000000000000000000 ) ) ;
#116 = AXIS2_PLACEMENT_3D ( 'NONE', #9, #185, #15 ) ;
#117 = CARTESIAN_POINT ( 'NONE',  ( -4.898587196589413800E-016, 8.000000000000000000, 0.0000000000000000000 ) ) ;
#118 = CARTESIAN_POINT ( 'NONE',  ( -59.00000000000000000, -7.500000000000000000, 9.491012693391981900E-016 ) ) ;
#119 = ORIENTED_EDGE ( 'NONE', *, *, #276, .F. ) ;
#120 =( LENGTH_UNIT ( ) NAMED_UNIT ( * ) SI_UNIT ( .MILLI., .METRE. ) );
#121 = DIRECTION ( 'NONE',  ( 6.123233995736767300E-017, -1.000000000000000000, 0.0000000000000000000 ) ) ;
#122 = APPROVAL_STATUS ( 'not_yet_approved' ) ;
#123 = ADVANCED_FACE ( 'NONE', ( #113 ), #260, .T. ) ;
#124 = CC_DESIGN_APPROVAL ( #104, ( #84 ) ) ;
#125 = APPROVAL_DATE_TIME ( #199, #242 ) ;
#126 = CIRCLE ( 'NONE', #175, 7.999999999999998200 ) ;
#127 = EDGE_CURVE ( 'NONE', #245, #147, #328, .T. ) ;
#128 = PRODUCT_DEFINITION_SHAPE ( 'NONE', 'NONE',  #352 ) ;
#129 = VERTEX_POINT ( 'NONE', #307 ) ;
#130 = AXIS2_PLACEMENT_3D ( 'NONE', #202, #31, #231 ) ;
#131 = APPROVAL_PERSON_ORGANIZATION ( #213, #242, #292 ) ;
#132 = VECTOR ( 'NONE', #91, 1000.000000000000000 ) ;
#133 = MANIFOLD_SOLID_BREP ( 'È¸Àü4', #329 ) ;
#134 = AXIS2_PLACEMENT_3D ( 'NONE', #181, #93, #151 ) ;
#135 = EDGE_LOOP ( 'NONE', ( #287, #327 ) ) ;
#136 = DIRECTION ( 'NONE',  ( 0.0000000000000000000, 0.0000000000000000000, -1.000000000000000000 ) ) ;
#137 = DIRECTION ( 'NONE',  ( -0.0000000000000000000, 0.0000000000000000000, 1.000000000000000000 ) ) ;
#138 = COORDINATED_UNIVERSAL_TIME_OFFSET ( 9, 0, .AHEAD. ) ;
#139 = CC_DESIGN_PERSON_AND_ORGANIZATION_ASSIGNMENT ( #361, #211, ( #84 ) ) ;
#140 = LINE ( 'NONE', #210, #54 ) ;
#141 = PERSON ( 'UNSPECIFIED', 'UNSPECIFIED', 'UNSPECIFIED', ('UNSPECIFIED'), ('UNSPECIFIED'), ('UNSPECIFIED') ) ;
#142 = DIRECTION ( 'NONE',  ( 0.0000000000000000000, 0.0000000000000000000, 1.000000000000000000 ) ) ;
#143 = EDGE_CURVE ( 'NONE', #147, #332, #192, .T. ) ;
#144 = CARTESIAN_POINT ( 'NONE',  ( 61.00000000000000700, 0.0000000000000000000, 7.599999999999998800 ) ) ;
#145 = VECTOR ( 'NONE', #316, 1000.000000000000000 ) ;
#146 = PLANE ( 'NONE',  #224 ) ;
#147 = VERTEX_POINT ( 'NONE', #108 ) ;
#148 = DIRECTION ( 'NONE',  ( -1.000000000000000000, -0.0000000000000000000, -0.0000000000000000000 ) ) ;
#149 = AXIS2_PLACEMENT_3D ( 'NONE', #229, #365, #282 ) ;
#150 =( NAMED_UNIT ( * ) SI_UNIT ( $, .STERADIAN. ) SOLID_ANGLE_UNIT ( ) );
#151 = DIRECTION ( 'NONE',  ( 0.0000000000000000000, 1.000000000000000000, 0.0000000000000000000 ) ) ;
#152 = ADVANCED_FACE ( 'NONE', ( #106 ), #78, .F. ) ;
#153 = PERSON_AND_ORGANIZATION_ROLE ( 'creator' ) ;
#154 = DIRECTION ( 'NONE',  ( 0.0000000000000000000, 0.0000000000000000000, 1.000000000000000000 ) ) ;
#155 = DATE_AND_TIME ( #225, #301 ) ;
#156 = ORIENTED_EDGE ( 'NONE', *, *, #262, .T. ) ;
#157 = FACE_OUTER_BOUND ( 'NONE', #232, .T. ) ;
#158 = VERTEX_POINT ( 'NONE', #251 ) ;
#159 = AXIS2_PLACEMENT_3D ( 'NONE', #317, #344, #154 ) ;
#160 = PERSON_AND_ORGANIZATION ( #141, #109 ) ;
#161 = ORIENTED_EDGE ( 'NONE', *, *, #243, .F. ) ;
#162 = CC_DESIGN_PERSON_AND_ORGANIZATION_ASSIGNMENT ( #291, #38, ( #84 ) ) ;
#163 = EDGE_CURVE ( 'NONE', #245, #110, #40, .T. ) ;
#164 = FACE_OUTER_BOUND ( 'NONE', #14, .T. ) ;
#165 = ORIENTED_EDGE ( 'NONE', *, *, #188, .T. ) ;
#166 = DIRECTION ( 'NONE',  ( 1.000000000000000000, 6.123233995736767300E-017, -0.0000000000000000000 ) ) ;
#167 = CARTESIAN_POINT ( 'NONE',  ( 61.00000000000000700, 0.0000000000000000000, 0.0000000000000000000 ) ) ;
#168 = AXIS2_PLACEMENT_3D ( 'NONE', #6, #204, #32 ) ;
#169 = PERSON_AND_ORGANIZATION ( #141, #109 ) ;
#170 = VERTEX_POINT ( 'NONE', #360 ) ;
#171 = DIRECTION ( 'NONE',  ( -1.000000000000000000, -0.0000000000000000000, -0.0000000000000000000 ) ) ;
#172 = DIRECTION ( 'NONE',  ( 1.000000000000000000, 6.123233995736767300E-017, -0.0000000000000000000 ) ) ;
#173 = TOROIDAL_SURFACE ( 'NONE', #50, 7.599999999999998800, 0.4000000000000019100 ) ;
#174 = DIRECTION ( 'NONE',  ( 0.0000000000000000000, 0.0000000000000000000, 1.000000000000000000 ) ) ;
#175 = AXIS2_PLACEMENT_3D ( 'NONE', #357, #194, #23 ) ;
#176 = CARTESIAN_POINT ( 'NONE',  ( 0.9999999999999986700, 8.000000000000000000, 0.0000000000000000000 ) ) ;
#177 = DIRECTION ( 'NONE',  ( 0.0000000000000000000, 0.0000000000000000000, 1.000000000000000000 ) ) ;
#178 = COORDINATED_UNIVERSAL_TIME_OFFSET ( 9, 0, .AHEAD. ) ;
#179 = APPLICATION_PROTOCOL_DEFINITION ( 'international standard', 'config_control_design', 1994, #209 ) ;
#180 = VERTEX_POINT ( 'NONE', #197 ) ;
#181 = CARTESIAN_POINT ( 'NONE',  ( -58.49999999999999300, -3.582091887506007800E-015, 0.0000000000000000000 ) ) ;
#182 = APPROVAL_STATUS ( 'not_yet_approved' ) ;
#183 = ADVANCED_FACE ( 'NONE', ( #30 ), #279, .F. ) ;
#184 = SECURITY_CLASSIFICATION ( '', '', #240 ) ;
#185 = DIRECTION ( 'NONE',  ( 1.000000000000000000, 6.123233995736767300E-017, -0.0000000000000000000 ) ) ;
#186 = DIRECTION ( 'NONE',  ( 0.0000000000000000000, 0.0000000000000000000, 1.000000000000000000 ) ) ;
#187 = FACE_OUTER_BOUND ( 'NONE', #81, .T. ) ;
#188 = EDGE_CURVE ( 'NONE', #147, #245, #347, .T. ) ;
#189 = ORIENTED_EDGE ( 'NONE', *, *, #314, .T. ) ;
#190 = ORIENTED_EDGE ( 'NONE', *, *, #330, .F. ) ;
#191 = AXIS2_PLACEMENT_3D ( 'NONE', #283, #2, #174 ) ;
#192 = CIRCLE ( 'NONE', #215, 0.4000000000000019100 ) ;
#193 = AXIS2_PLACEMENT_3D ( 'NONE', #7, #148, #186 ) ;
#194 = DIRECTION ( 'NONE',  ( -1.000000000000000000, -0.0000000000000000000, -0.0000000000000000000 ) ) ;
#195 = ORIENTED_EDGE ( 'NONE', *, *, #163, .T. ) ;
#196 = DIRECTION ( 'NONE',  ( 0.0000000000000000000, 0.0000000000000000000, 1.000000000000000000 ) ) ;
#197 = CARTESIAN_POINT ( 'NONE',  ( 0.9999999999999978900, 8.000000000000000000, 0.0000000000000000000 ) ) ;
#198 = CC_DESIGN_PERSON_AND_ORGANIZATION_ASSIGNMENT ( #217, #63, ( #184 ) ) ;
#199 = DATE_AND_TIME ( #273, #346 ) ;
#200 = LINE ( 'NONE', #289, #132 ) ;
#201 = EDGE_CURVE ( 'NONE', #332, #110, #325, .T. ) ;
#202 = CARTESIAN_POINT ( 'NONE',  ( 0.9999999999999983300, 6.123233995736757400E-017, 0.0000000000000000000 ) ) ;
#203 = ADVANCED_BREP_SHAPE_REPRESENTATION ( '03-3211', ( #5, #133, #321 ), #247 ) ;
#204 = DIRECTION ( 'NONE',  ( 1.000000000000000000, 6.123233995736767300E-017, -0.0000000000000000000 ) ) ;
#205 = SHAPE_DEFINITION_REPRESENTATION ( #128, #203 ) ;
#206 = ORIENTED_EDGE ( 'NONE', *, *, #201, .T. ) ;
#207 = CARTESIAN_POINT ( 'NONE',  ( 0.0000000000000000000, 0.0000000000000000000, 0.0000000000000000000 ) ) ;
#208 = CARTESIAN_POINT ( 'NONE',  ( -58.49999999999999300, 7.999999999999992900, 0.0000000000000000000 ) ) ;
#209 = APPLICATION_CONTEXT ( 'configuration controlled 3d designs of mechanical parts and assemblies' ) ;
#210 = CARTESIAN_POINT ( 'NONE',  ( 0.0000000000000000000, 0.0000000000000000000, 8.000000000000000000 ) ) ;
#211 = PERSON_AND_ORGANIZATION_ROLE ( 'creator' ) ;
#212 = ADVANCED_FACE ( 'NONE', ( #187 ), #173, .T. ) ;
#213 = PERSON_AND_ORGANIZATION ( #141, #109 ) ;
#214 = FACE_OUTER_BOUND ( 'NONE', #20, .T. ) ;
#215 = AXIS2_PLACEMENT_3D ( 'NONE', #254, #79, #278 ) ;
#216 = ORIENTED_EDGE ( 'NONE', *, *, #276, .T. ) ;
#217 = PERSON_AND_ORGANIZATION ( #141, #109 ) ;
#218 = CIRCLE ( 'NONE', #116, 7.999999999999996400 ) ;
#219 = ORIENTED_EDGE ( 'NONE', *, *, #221, .F. ) ;
#220 = CC_DESIGN_DATE_AND_TIME_ASSIGNMENT ( #280, #269, ( #184 ) ) ;
#221 = EDGE_CURVE ( 'NONE', #272, #129, #249, .T. ) ;
#222 = CYLINDRICAL_SURFACE ( 'NONE', #191, 8.000000000000000000 ) ;
#223 = ORIENTED_EDGE ( 'NONE', *, *, #22, .F. ) ;
#224 = AXIS2_PLACEMENT_3D ( 'NONE', #176, #234, #58 ) ;
#225 = CALENDAR_DATE ( 2023, 31, 7 ) ;
#226 = EDGE_LOOP ( 'NONE', ( #302, #165, #195, #310 ) ) ;
#227 = CARTESIAN_POINT ( 'NONE',  ( 61.00000000000000700, 0.0000000000000000000, 0.0000000000000000000 ) ) ;
#228 = DIRECTION ( 'NONE',  ( 0.0000000000000000000, 1.000000000000000000, 0.0000000000000000000 ) ) ;
#229 = CARTESIAN_POINT ( 'NONE',  ( 0.0000000000000000000, 0.0000000000000000000, 0.0000000000000000000 ) ) ;
#230 = CIRCLE ( 'NONE', #168, 7.499999999999996400 ) ;
#231 = DIRECTION ( 'NONE',  ( -5.421010862427522200E-017, 1.000000000000000000, 0.0000000000000000000 ) ) ;
#232 = EDGE_LOOP ( 'NONE', ( #26, #277, #83, #71 ) ) ;
#233 = AXIS2_PLACEMENT_3D ( 'NONE', #167, #359, #196 ) ;
#234 = DIRECTION ( 'NONE',  ( 1.000000000000000000, 6.123233995736767300E-017, -0.0000000000000000000 ) ) ;
#235 = DIRECTION ( 'NONE',  ( 1.000000000000000000, 0.0000000000000000000, 0.0000000000000000000 ) ) ;
#236 = DIRECTION ( 'NONE',  ( -1.000000000000000000, -6.123233995736767300E-017, 0.0000000000000000000 ) ) ;
#237 = DATE_AND_TIME ( #309, #19 ) ;
#238 = ORIENTED_EDGE ( 'NONE', *, *, #298, .F. ) ;
#239 = ADVANCED_FACE ( 'NONE', ( #100 ), #304, .T. ) ;
#240 = SECURITY_CLASSIFICATION_LEVEL ( 'unclassified' ) ;
#241 = CARTESIAN_POINT ( 'NONE',  ( -59.00000000000000000, -3.612708057484692400E-015, 0.0000000000000000000 ) ) ;
#242 = APPROVAL ( #99, 'UNSPECIFIED' ) ;
#243 = EDGE_CURVE ( 'NONE', #170, #158, #313, .T. ) ;
#244 = CIRCLE ( 'NONE', #130, 8.000000000000000000 ) ;
#245 = VERTEX_POINT ( 'NONE', #144 ) ;
#246 = APPROVAL_DATE_TIME ( #319, #12 ) ;
#247 =( GEOMETRIC_REPRESENTATION_CONTEXT ( 3 ) GLOBAL_UNCERTAINTY_ASSIGNED_CONTEXT ( ( #69 ) ) GLOBAL_UNIT_ASSIGNED_CONTEXT ( ( #120, #318, #150 ) ) REPRESENTATION_CONTEXT ( 'NONE', 'WORKASPACE' ) );
#248 = ORIENTED_EDGE ( 'NONE', *, *, #262, .F. ) ;
#249 = CIRCLE ( 'NONE', #33, 8.000000000000000000 ) ;
#250 = AXIS2_PLACEMENT_3D ( 'NONE', #43, #166, #49 ) ;
#251 = CARTESIAN_POINT ( 'NONE',  ( 0.9999999999999986700, -8.000000000000000000, 9.797174393178825700E-016 ) ) ;
#252 = APPROVAL_PERSON_ORGANIZATION ( #326, #12, #322 ) ;
#253 = ORIENTED_EDGE ( 'NONE', *, *, #1, .T. ) ;
#254 = CARTESIAN_POINT ( 'NONE',  ( 60.60000000000000100, 9.307315673519883500E-016, -7.599999999999998800 ) ) ;
#255 = PRODUCT ( '03-3211', '03-3211', '', ( #60 ) ) ;
#256 = DIRECTION ( 'NONE',  ( 0.0000000000000000000, -1.000000000000000000, 0.0000000000000000000 ) ) ;
#257 = DIRECTION ( 'NONE',  ( 0.0000000000000000000, 0.0000000000000000000, 1.000000000000000000 ) ) ;
#258 = CC_DESIGN_APPROVAL ( #242, ( #184 ) ) ;
#259 = DIRECTION ( 'NONE',  ( -1.000000000000000000, -0.0000000000000000000, -0.0000000000000000000 ) ) ;
#260 = CYLINDRICAL_SURFACE ( 'NONE', #250, 8.000000000000000000 ) ;
#261 = ORIENTED_EDGE ( 'NONE', *, *, #85, .F. ) ;
#262 = EDGE_CURVE ( 'NONE', #77, #170, #16, .T. ) ;
#263 = DIRECTION ( 'NONE',  ( 1.000000000000000000, 6.123233995736767300E-017, -0.0000000000000000000 ) ) ;
#264 = CARTESIAN_POINT ( 'NONE',  ( -58.49999999999999300, -8.000000000000000000, 9.797174393178821700E-016 ) ) ;
#265 = ORIENTED_EDGE ( 'NONE', *, *, #163, .F. ) ;
#266 = AXIS2_PLACEMENT_3D ( 'NONE', #90, #341, #177 ) ;
#267 = PERSON_AND_ORGANIZATION_ROLE ( 'design_owner' ) ;
#268 = ADVANCED_FACE ( 'NONE', ( #164 ), #75, .T. ) ;
#269 = DATE_TIME_ROLE ( 'classification_date' ) ;
#270 = DIRECTION ( 'NONE',  ( 0.0000000000000000000, 1.000000000000000000, 0.0000000000000000000 ) ) ;
#271 = FACE_OUTER_BOUND ( 'NONE', #226, .T. ) ;
#272 = VERTEX_POINT ( 'NONE', #115 ) ;
#273 = CALENDAR_DATE ( 2023, 31, 7 ) ;
#274 = CC_DESIGN_SECURITY_CLASSIFICATION ( #184, ( #84 ) ) ;
#275 = TOROIDAL_SURFACE ( 'NONE', #193, 7.599999999999998800, 0.4000000000000019100 ) ;
#276 = EDGE_CURVE ( 'NONE', #180, #158, #244, .T. ) ;
#277 = ORIENTED_EDGE ( 'NONE', *, *, #85, .T. ) ;
#278 = DIRECTION ( 'NONE',  ( 0.0000000000000000000, -1.224646799147355200E-016, 1.000000000000000000 ) ) ;
#279 = PLANE ( 'NONE',  #358 ) ;
#280 = DATE_AND_TIME ( #353, #65 ) ;
#281 = CIRCLE ( 'NONE', #76, 7.499999999999996400 ) ;
#282 = DIRECTION ( 'NONE',  ( -6.123233995736767300E-017, 1.000000000000000000, 0.0000000000000000000 ) ) ;
#283 = CARTESIAN_POINT ( 'NONE',  ( 0.0000000000000000000, 0.0000000000000000000, 0.0000000000000000000 ) ) ;
#284 = DESIGN_CONTEXT ( 'detailed design', #95, 'design' ) ;
#285 = FACE_OUTER_BOUND ( 'NONE', #305, .T. ) ;
#286 = CARTESIAN_POINT ( 'NONE',  ( -59.00000000000000000, -3.612708057484692400E-015, 0.0000000000000000000 ) ) ;
#287 = ORIENTED_EDGE ( 'NONE', *, *, #68, .T. ) ;
#288 = AXIS2_PLACEMENT_3D ( 'NONE', #51, #256, #82 ) ;
#289 = CARTESIAN_POINT ( 'NONE',  ( 0.0000000000000000000, 9.797174393178825700E-016, -8.000000000000000000 ) ) ;
#290 = APPLICATION_PROTOCOL_DEFINITION ( 'international standard', 'config_control_design', 1994, #95 ) ;
#291 = PERSON_AND_ORGANIZATION ( #141, #109 ) ;
#292 = APPROVAL_ROLE ( '' ) ;
#293 = ORIENTED_EDGE ( 'NONE', *, *, #143, .T. ) ;
#294 = DIRECTION ( 'NONE',  ( -5.421010862427522200E-017, 1.000000000000000000, 0.0000000000000000000 ) ) ;
#295 = ORIENTED_EDGE ( 'NONE', *, *, #127, .F. ) ;
#296 = ADVANCED_FACE ( 'NONE', ( #157 ), #222, .T. ) ;
#297 = PRODUCT_RELATED_PRODUCT_CATEGORY ( 'detail', '', ( #255 ) ) ;
#298 = EDGE_CURVE ( 'NONE', #77, #180, #21, .T. ) ;
#299 = FACE_OUTER_BOUND ( 'NONE', #103, .T. ) ;
#300 = ORIENTED_EDGE ( 'NONE', *, *, #188, .F. ) ;
#301 = LOCAL_TIME ( 9, 25, 31.00000000000000000, #10 ) ;
#302 = ORIENTED_EDGE ( 'NONE', *, *, #143, .F. ) ;
#303 = CLOSED_SHELL ( 'NONE', ( #296, #212, #98, #345, #152, #183 ) ) ;
#304 = CONICAL_SURFACE ( 'NONE', #72, 7.999999999999996400, 0.7853981633974415100 ) ;
#305 = EDGE_LOOP ( 'NONE', ( #261, #206, #320, #219 ) ) ;
#306 = AXIS2_PLACEMENT_3D ( 'NONE', #24, #308, #136 ) ;
#307 = CARTESIAN_POINT ( 'NONE',  ( 0.9999999999999997800, 0.0000000000000000000, 8.000000000000000000 ) ) ;
#308 = DIRECTION ( 'NONE',  ( 1.000000000000000000, 0.0000000000000000000, 0.0000000000000000000 ) ) ;
#309 = CALENDAR_DATE ( 2023, 31, 7 ) ;
#310 = ORIENTED_EDGE ( 'NONE', *, *, #201, .F. ) ;
#311 = DIRECTION ( 'NONE',  ( -1.000000000000000000, 0.0000000000000000000, -0.0000000000000000000 ) ) ;
#312 = DIRECTION ( 'NONE',  ( -1.000000000000000000, -0.0000000000000000000, -0.0000000000000000000 ) ) ;
#313 = LINE ( 'NONE', #337, #88 ) ;
#314 = EDGE_CURVE ( 'NONE', #351, #336, #230, .T. ) ;
#315 = DIRECTION ( 'NONE',  ( 1.000000000000000000, 6.123233995736767300E-017, -0.0000000000000000000 ) ) ;
#316 = DIRECTION ( 'NONE',  ( 0.7071067811865523500, 0.7071067811865426900, 0.0000000000000000000 ) ) ;
#317 = CARTESIAN_POINT ( 'NONE',  ( 0.9999999999999997800, 0.0000000000000000000, 0.0000000000000000000 ) ) ;
#318 =( NAMED_UNIT ( * ) PLANE_ANGLE_UNIT ( ) SI_UNIT ( $, .RADIAN. ) );
#319 = DATE_AND_TIME ( #25, #102 ) ;
#320 = ORIENTED_EDGE ( 'NONE', *, *, #47, .T. ) ;
#321 = AXIS2_PLACEMENT_3D ( 'NONE', #207, #37, #235 ) ;
#322 = APPROVAL_ROLE ( '' ) ;
#323 = ADVANCED_FACE ( 'NONE', ( #299 ), #146, .T. ) ;
#324 = PLANE ( 'NONE',  #101 ) ;
#325 = CIRCLE ( 'NONE', #18, 7.999999999999998200 ) ;
#326 = PERSON_AND_ORGANIZATION ( #141, #109 ) ;
#327 = ORIENTED_EDGE ( 'NONE', *, *, #221, .T. ) ;
#328 = CIRCLE ( 'NONE', #233, 7.599999999999998800 ) ;
#329 = CLOSED_SHELL ( 'NONE', ( #268, #239, #323, #11, #66, #123 ) ) ;
#330 = EDGE_CURVE ( 'NONE', #336, #170, #355, .T. ) ;
#331 = CARTESIAN_POINT ( 'NONE',  ( 60.60000000000000100, 0.0000000000000000000, 8.000000000000000000 ) ) ;
#332 = VERTEX_POINT ( 'NONE', #339 ) ;
#333 = CC_DESIGN_PERSON_AND_ORGANIZATION_ASSIGNMENT ( #35, #267, ( #255 ) ) ;
#334 = DIRECTION ( 'NONE',  ( 0.0000000000000000000, 0.0000000000000000000, 1.000000000000000000 ) ) ;
#335 = CONICAL_SURFACE ( 'NONE', #134, 7.999999999999996400, 0.7853981633974415100 ) ;
#336 = VERTEX_POINT ( 'NONE', #118 ) ;
#337 = CARTESIAN_POINT ( 'NONE',  ( 4.898587196589413800E-016, -8.000000000000000000, 9.797174393178825700E-016 ) ) ;
#338 = DIRECTION ( 'NONE',  ( 0.7071067811865523500, -0.7071067811865426900, 8.659560562354873700E-017 ) ) ;
#339 = CARTESIAN_POINT ( 'NONE',  ( 60.60000000000000100, 9.797174393178825700E-016, -8.000000000000000000 ) ) ;
#340 = AXIS2_PLACEMENT_3D ( 'NONE', #227, #52, #257 ) ;
#341 = DIRECTION ( 'NONE',  ( -1.000000000000000000, -0.0000000000000000000, -0.0000000000000000000 ) ) ;
#342 = ORIENTED_EDGE ( 'NONE', *, *, #298, .T. ) ;
#343 = DATE_TIME_ROLE ( 'creation_date' ) ;
#344 = DIRECTION ( 'NONE',  ( -1.000000000000000000, -0.0000000000000000000, -0.0000000000000000000 ) ) ;
#345 = ADVANCED_FACE ( 'NONE', ( #285 ), #350, .T. ) ;
#346 = LOCAL_TIME ( 9, 25, 31.00000000000000000, #53 ) ;
#347 = CIRCLE ( 'NONE', #340, 7.599999999999998800 ) ;
#348 = ORIENTED_EDGE ( 'NONE', *, *, #314, .F. ) ;
#349 = EDGE_CURVE ( 'NONE', #351, #77, #57, .T. ) ;
#350 = CYLINDRICAL_SURFACE ( 'NONE', #266, 8.000000000000000000 ) ;
#351 = VERTEX_POINT ( 'NONE', #34 ) ;
#352 = PRODUCT_DEFINITION ( 'UNKNOWN', '', #84, #284 ) ;
#353 = CALENDAR_DATE ( 2023, 31, 7 ) ;
#354 = FACE_OUTER_BOUND ( 'NONE', #114, .T. ) ;
#355 = LINE ( 'NONE', #264, #70 ) ;
#356 = EDGE_LOOP ( 'NONE', ( #295, #300 ) ) ;
#357 = CARTESIAN_POINT ( 'NONE',  ( 60.60000000000000100, 0.0000000000000000000, 0.0000000000000000000 ) ) ;
#358 = AXIS2_PLACEMENT_3D ( 'NONE', #111, #311, #137 ) ;
#359 = DIRECTION ( 'NONE',  ( -1.000000000000000000, -0.0000000000000000000, -0.0000000000000000000 ) ) ;
#360 = CARTESIAN_POINT ( 'NONE',  ( -58.49999999999999300, -8.000000000000000000, 9.797174393178821700E-016 ) ) ;
#361 = PERSON_AND_ORGANIZATION ( #141, #109 ) ;
#362 = EDGE_LOOP ( 'NONE', ( #189, #48, #248, #41 ) ) ;
#363 = CARTESIAN_POINT ( 'NONE',  ( 60.60000000000000100, 0.0000000000000000000, 0.0000000000000000000 ) ) ;
#364 = DIRECTION ( 'NONE',  ( 1.000000000000000000, 6.123233995736767300E-017, -0.0000000000000000000 ) ) ;
#365 = DIRECTION ( 'NONE',  ( 1.000000000000000000, 6.123233995736767300E-017, -0.0000000000000000000 ) ) ;
ENDSEC;
END-ISO-10303-21;
