ISO-10303-21;
HEADER;
FILE_DESCRIPTION (( 'STEP AP203' ),
    '1' );
FILE_NAME ('03-3212.STEP',
    '2023-07-31T00:25:51',
    ( 'USER' ),
    ( 'Hewlett-Packard Company' ),
    'SwSTEP 2.0',
    'SolidWorks 2014',
    '' );
FILE_SCHEMA (( 'CONFIG_CONTROL_DESIGN' ));
ENDSEC;

DATA;
#1 = AXIS2_PLACEMENT_3D ( 'NONE', #294, #339, #204 ) ;
#2 = VERTEX_POINT ( 'NONE', #148 ) ;
#3 = ORIENTED_EDGE ( 'NONE', *, *, #124, .T. ) ;
#4 = EDGE_LOOP ( 'NONE', ( #113, #13, #227, #31 ) ) ;
#5 = PERSON_AND_ORGANIZATION ( #207, #222 ) ;
#6 = ORIENTED_EDGE ( 'NONE', *, *, #170, .T. ) ;
#7 = AXIS2_PLACEMENT_3D ( 'NONE', #250, #69, #273 ) ;
#8 = ORIENTED_EDGE ( 'NONE', *, *, #179, .T. ) ;
#9 = FACE_OUTER_BOUND ( 'NONE', #197, .T. ) ;
#10 = DIRECTION ( 'NONE',  ( -0.0000000000000000000, 0.0000000000000000000, 1.000000000000000000 ) ) ;
#11 = ORIENTED_EDGE ( 'NONE', *, *, #144, .F. ) ;
#12 = ORIENTED_EDGE ( 'NONE', *, *, #144, .T. ) ;
#13 = ORIENTED_EDGE ( 'NONE', *, *, #102, .T. ) ;
#14 = LOCAL_TIME ( 9, 25, 51.00000000000000000, #108 ) ;
#15 = AXIS2_PLACEMENT_3D ( 'NONE', #34, #248, #67 ) ;
#16 = ADVANCED_FACE ( 'NONE', ( #78 ), #289, .T. ) ;
#17 = APPROVAL_ROLE ( '' ) ;
#18 = VERTEX_POINT ( 'NONE', #136 ) ;
#19 = ORIENTED_EDGE ( 'NONE', *, *, #165, .T. ) ;
#20 = DIRECTION ( 'NONE',  ( 1.000000000000000000, 6.123233995736766000E-017, -0.0000000000000000000 ) ) ;
#21 = CC_DESIGN_APPROVAL ( #362, ( #341 ) ) ;
#22 = AXIS2_PLACEMENT_3D ( 'NONE', #323, #75, #279 ) ;
#23 = DIRECTION ( 'NONE',  ( -0.0000000000000000000, 1.000000000000000000, 1.224646799147353200E-016 ) ) ;
#24 = ORIENTED_EDGE ( 'NONE', *, *, #83, .T. ) ;
#25 = ORIENTED_EDGE ( 'NONE', *, *, #95, .T. ) ;
#26 = VECTOR ( 'NONE', #137, 1000.000000000000000 ) ;
#27 = AXIS2_PLACEMENT_3D ( 'NONE', #142, #319, #140 ) ;
#28 = CALENDAR_DATE ( 2023, 31, 7 ) ;
#29 = DIRECTION ( 'NONE',  ( -1.000000000000000000, -0.0000000000000000000, -0.0000000000000000000 ) ) ;
#30 = CARTESIAN_POINT ( 'NONE',  ( -74.00000000000001400, 9.499999999999989300, 0.0000000000000000000 ) ) ;
#31 = ORIENTED_EDGE ( 'NONE', *, *, #83, .F. ) ;
#32 = EDGE_LOOP ( 'NONE', ( #244, #65, #167, #309 ) ) ;
#33 = AXIS2_PLACEMENT_3D ( 'NONE', #195, #29, #59 ) ;
#34 = CARTESIAN_POINT ( 'NONE',  ( 65.60000000000000900, 0.0000000000000000000, 0.0000000000000000000 ) ) ;
#35 = AXIS2_PLACEMENT_3D ( 'NONE', #275, #365, #228 ) ;
#36 = ORIENTED_EDGE ( 'NONE', *, *, #192, .T. ) ;
#37 = EDGE_LOOP ( 'NONE', ( #171, #129 ) ) ;
#38 = DATE_AND_TIME ( #130, #211 ) ;
#39 = AXIS2_PLACEMENT_3D ( 'NONE', #221, #23, #243 ) ;
#40 = ORIENTED_EDGE ( 'NONE', *, *, #196, .F. ) ;
#41 = ORIENTED_EDGE ( 'NONE', *, *, #105, .F. ) ;
#42 = CC_DESIGN_PERSON_AND_ORGANIZATION_ASSIGNMENT ( #267, #349, ( #341 ) ) ;
#43 = CARTESIAN_POINT ( 'NONE',  ( -73.50000000000001400, -4.500576986866523800E-015, 0.0000000000000000000 ) ) ;
#44 = ORIENTED_EDGE ( 'NONE', *, *, #179, .F. ) ;
#45 = AXIS2_PLACEMENT_3D ( 'NONE', #43, #255, #238 ) ;
#46 = VERTEX_POINT ( 'NONE', #292 ) ;
#47 = EDGE_LOOP ( 'NONE', ( #300, #87, #3, #11 ) ) ;
#48 = CIRCLE ( 'NONE', #1, 9.999999999999994700 ) ;
#49 = DIRECTION ( 'NONE',  ( -1.000000000000000000, -6.123233995736766000E-017, 0.0000000000000000000 ) ) ;
#50 = PERSON_AND_ORGANIZATION ( #207, #222 ) ;
#51 = AXIS2_PLACEMENT_3D ( 'NONE', #199, #355, #223 ) ;
#52 = CIRCLE ( 'NONE', #15, 9.999999999999998200 ) ;
#53 = DIRECTION ( 'NONE',  ( 0.0000000000000000000, 0.0000000000000000000, 1.000000000000000000 ) ) ;
#54 = VERTEX_POINT ( 'NONE', #30 ) ;
#55 = CARTESIAN_POINT ( 'NONE',  ( 0.9999999999999985600, 10.00000000000000000, 0.0000000000000000000 ) ) ;
#56 = AXIS2_PLACEMENT_3D ( 'NONE', #308, #163, #311 ) ;
#57 = EDGE_LOOP ( 'NONE', ( #96, #8, #318, #353 ) ) ;
#58 = AXIS2_PLACEMENT_3D ( 'NONE', #290, #209, #10 ) ;
#59 = DIRECTION ( 'NONE',  ( 0.0000000000000000000, 0.0000000000000000000, 1.000000000000000000 ) ) ;
#60 = VECTOR ( 'NONE', #164, 1000.000000000000000 ) ;
#61 = CARTESIAN_POINT ( 'NONE',  ( 0.0000000000000000000, 0.0000000000000000000, 9.999999999999998200 ) ) ;
#62 = ORIENTED_EDGE ( 'NONE', *, *, #184, .T. ) ;
#63 = AXIS2_PLACEMENT_3D ( 'NONE', #351, #265, #92 ) ;
#64 = CARTESIAN_POINT ( 'NONE',  ( -74.00000000000001400, -4.531193156845207600E-015, 0.0000000000000000000 ) ) ;
#65 = ORIENTED_EDGE ( 'NONE', *, *, #151, .T. ) ;
#66 = CC_DESIGN_DATE_AND_TIME_ASSIGNMENT ( #320, #218, ( #341 ) ) ;
#67 = DIRECTION ( 'NONE',  ( 0.0000000000000000000, 0.0000000000000000000, 1.000000000000000000 ) ) ;
#68 = LINE ( 'NONE', #169, #71 ) ;
#69 = DIRECTION ( 'NONE',  ( -1.000000000000000000, -0.0000000000000000000, -0.0000000000000000000 ) ) ;
#70 = VECTOR ( 'NONE', #99, 1000.000000000000000 ) ;
#71 = VECTOR ( 'NONE', #202, 1000.000000000000000 ) ;
#72 = LOCAL_TIME ( 9, 25, 51.00000000000000000, #168 ) ;
#73 = CONICAL_SURFACE ( 'NONE', #231, 9.999999999999994700, 0.7853981633974482800 ) ;
#74 = AXIS2_PLACEMENT_3D ( 'NONE', #97, #132, #312 ) ;
#75 = DIRECTION ( 'NONE',  ( 1.000000000000000000, 6.123233995736766000E-017, -0.0000000000000000000 ) ) ;
#76 = CARTESIAN_POINT ( 'NONE',  ( -73.50000000000001400, 9.999999999999989300, 0.0000000000000000000 ) ) ;
#77 =( NAMED_UNIT ( * ) PLANE_ANGLE_UNIT ( ) SI_UNIT ( $, .RADIAN. ) );
#78 = FACE_OUTER_BOUND ( 'NONE', #205, .T. ) ;
#79 = LINE ( 'NONE', #336, #26 ) ;
#80 = CIRCLE ( 'NONE', #316, 10.00000000000000000 ) ;
#81 = DIRECTION ( 'NONE',  ( -6.505213034913026600E-017, 1.000000000000000000, 0.0000000000000000000 ) ) ;
#82 = CALENDAR_DATE ( 2023, 31, 7 ) ;
#83 = EDGE_CURVE ( 'NONE', #266, #150, #296, .T. ) ;
#84 = APPROVAL_STATUS ( 'not_yet_approved' ) ;
#85 = CARTESIAN_POINT ( 'NONE',  ( 0.0000000000000000000, 0.0000000000000000000, 0.0000000000000000000 ) ) ;
#86 = ADVANCED_FACE ( 'NONE', ( #344 ), #268, .F. ) ;
#87 = ORIENTED_EDGE ( 'NONE', *, *, #127, .T. ) ;
#88 = EDGE_LOOP ( 'NONE', ( #210, #110, #41, #219 ) ) ;
#89 = CYLINDRICAL_SURFACE ( 'NONE', #122, 9.999999999999998200 ) ;
#90 = PRODUCT_DEFINITION_FORMATION_WITH_SPECIFIED_SOURCE ( 'ANY', '', #149, .NOT_KNOWN. ) ;
#91 = DIRECTION ( 'NONE',  ( 0.0000000000000000000, 0.0000000000000000000, 1.000000000000000000 ) ) ;
#92 = DIRECTION ( 'NONE',  ( 0.0000000000000000000, 0.0000000000000000000, 1.000000000000000000 ) ) ;
#93 = EDGE_LOOP ( 'NONE', ( #183, #94, #6, #257 ) ) ;
#94 = ORIENTED_EDGE ( 'NONE', *, *, #200, .T. ) ;
#95 = EDGE_CURVE ( 'NONE', #150, #2, #352, .T. ) ;
#96 = ORIENTED_EDGE ( 'NONE', *, *, #175, .T. ) ;
#97 = CARTESIAN_POINT ( 'NONE',  ( -73.50000000000001400, -4.500576986866523800E-015, 0.0000000000000000000 ) ) ;
#98 = PERSON_AND_ORGANIZATION ( #207, #222 ) ;
#99 = DIRECTION ( 'NONE',  ( -1.000000000000000000, -0.0000000000000000000, -0.0000000000000000000 ) ) ;
#100 = AXIS2_PLACEMENT_3D ( 'NONE', #233, #302, #260 ) ;
#101 = VERTEX_POINT ( 'NONE', #201 ) ;
#102 = EDGE_CURVE ( 'NONE', #101, #2, #154, .T. ) ;
#103 = SHAPE_DEFINITION_REPRESENTATION ( #321, #174 ) ;
#104 = DIRECTION ( 'NONE',  ( 0.0000000000000000000, 1.000000000000000000, 0.0000000000000000000 ) ) ;
#105 = EDGE_CURVE ( 'NONE', #266, #101, #166, .T. ) ;
#106 = DIRECTION ( 'NONE',  ( 0.0000000000000000000, 1.000000000000000000, 0.0000000000000000000 ) ) ;
#107 = EDGE_LOOP ( 'NONE', ( #155, #40 ) ) ;
#108 = COORDINATED_UNIVERSAL_TIME_OFFSET ( 9, 0, .AHEAD. ) ;
#109 = EDGE_CURVE ( 'NONE', #46, #357, #340, .T. ) ;
#110 = ORIENTED_EDGE ( 'NONE', *, *, #116, .T. ) ;
#111 = ORIENTED_EDGE ( 'NONE', *, *, #147, .F. ) ;
#112 = APPROVAL ( #215, 'UNSPECIFIED' ) ;
#113 = ORIENTED_EDGE ( 'NONE', *, *, #105, .T. ) ;
#114 = CARTESIAN_POINT ( 'NONE',  ( 0.0000000000000000000, 0.0000000000000000000, 0.0000000000000000000 ) ) ;
#115 = LOCAL_TIME ( 9, 25, 51.00000000000000000, #208 ) ;
#116 = EDGE_CURVE ( 'NONE', #357, #101, #229, .T. ) ;
#117 = CARTESIAN_POINT ( 'NONE',  ( 66.00000000000000000, 1.200153863164406100E-015, -9.600000000000001400 ) ) ;
#118 = CARTESIAN_POINT ( 'NONE',  ( 0.9999999999999978900, 6.123233995736752500E-017, 0.0000000000000000000 ) ) ;
#119 = PERSON_AND_ORGANIZATION_ROLE ( 'design_supplier' ) ;
#120 = VECTOR ( 'NONE', #246, 1000.000000000000000 ) ;
#121 = ADVANCED_FACE ( 'NONE', ( #284 ), #235, .T. ) ;
#122 = AXIS2_PLACEMENT_3D ( 'NONE', #85, #123, #263 ) ;
#123 = DIRECTION ( 'NONE',  ( -1.000000000000000000, -0.0000000000000000000, -0.0000000000000000000 ) ) ;
#124 = EDGE_CURVE ( 'NONE', #46, #266, #145, .T. ) ;
#125 = DIRECTION ( 'NONE',  ( 1.000000000000000000, 6.123233995736766000E-017, -0.0000000000000000000 ) ) ;
#126 = DIRECTION ( 'NONE',  ( 6.123233995736766000E-017, -1.000000000000000000, 0.0000000000000000000 ) ) ;
#127 = EDGE_CURVE ( 'NONE', #357, #46, #224, .T. ) ;
#128 = ORIENTED_EDGE ( 'NONE', *, *, #147, .T. ) ;
#129 = ORIENTED_EDGE ( 'NONE', *, *, #127, .F. ) ;
#130 = CALENDAR_DATE ( 2023, 31, 7 ) ;
#131 = DESIGN_CONTEXT ( 'detailed design', #343, 'design' ) ;
#132 = DIRECTION ( 'NONE',  ( 1.000000000000000000, 6.123233995736766000E-017, -0.0000000000000000000 ) ) ;
#133 = TOROIDAL_SURFACE ( 'NONE', #364, 9.600000000000001400, 0.3999999999999975800 ) ;
#134 = ORIENTED_EDGE ( 'NONE', *, *, #102, .F. ) ;
#135 = LINE ( 'NONE', #226, #120 ) ;
#136 = CARTESIAN_POINT ( 'NONE',  ( 0.9999999999999985600, -10.00000000000000000, 1.224646799147353300E-015 ) ) ;
#137 = DIRECTION ( 'NONE',  ( 0.7071067811865475700, 0.7071067811865474600, 0.0000000000000000000 ) ) ;
#138 = CC_DESIGN_APPROVAL ( #112, ( #90 ) ) ;
#139 = CLOSED_SHELL ( 'NONE', ( #239, #188, #121, #216, #262, #86 ) ) ;
#140 = DIRECTION ( 'NONE',  ( 0.0000000000000000000, 0.0000000000000000000, 1.000000000000000000 ) ) ;
#141 = PERSON_AND_ORGANIZATION ( #207, #222 ) ;
#142 = CARTESIAN_POINT ( 'NONE',  ( 66.00000000000000000, 0.0000000000000000000, 0.0000000000000000000 ) ) ;
#143 = CARTESIAN_POINT ( 'NONE',  ( 0.9999999999999997800, 0.0000000000000000000, 10.00000000000000000 ) ) ;
#144 = EDGE_CURVE ( 'NONE', #101, #266, #52, .T. ) ;
#145 = CIRCLE ( 'NONE', #35, 0.3999999999999975800 ) ;
#146 = AXIS2_PLACEMENT_3D ( 'NONE', #152, #348, #217 ) ;
#147 = EDGE_CURVE ( 'NONE', #2, #150, #335, .T. ) ;
#148 = CARTESIAN_POINT ( 'NONE',  ( 0.9999999999999997800, 1.224646799147353300E-015, -10.00000000000000000 ) ) ;
#149 = PRODUCT ( '03-3212', '03-3212', '', ( #345 ) ) ;
#150 = VERTEX_POINT ( 'NONE', #143 ) ;
#151 = EDGE_CURVE ( 'NONE', #251, #18, #277, .T. ) ;
#152 = CARTESIAN_POINT ( 'NONE',  ( 1.000000000000000400, 1.084202172485505400E-016, 0.0000000000000000000 ) ) ;
#153 = PLANE ( 'NONE',  #189 ) ;
#154 = LINE ( 'NONE', #333, #60 ) ;
#155 = ORIENTED_EDGE ( 'NONE', *, *, #175, .F. ) ;
#156 = DIRECTION ( 'NONE',  ( -1.000000000000000000, -0.0000000000000000000, -0.0000000000000000000 ) ) ;
#157 = EDGE_CURVE ( 'NONE', #338, #251, #48, .T. ) ;
#158 = PERSON_AND_ORGANIZATION_ROLE ( 'classification_officer' ) ;
#159 = ADVANCED_FACE ( 'NONE', ( #361 ), #73, .T. ) ;
#160 = CARTESIAN_POINT ( 'NONE',  ( -73.50000000000001400, -10.00000000000000000, 1.224646799147352700E-015 ) ) ;
#161 = CC_DESIGN_PERSON_AND_ORGANIZATION_ASSIGNMENT ( #98, #299, ( #90 ) ) ;
#162 = PLANE ( 'NONE',  #240 ) ;
#163 = DIRECTION ( 'NONE',  ( -1.000000000000000000, -0.0000000000000000000, -0.0000000000000000000 ) ) ;
#164 = DIRECTION ( 'NONE',  ( -1.000000000000000000, -0.0000000000000000000, -0.0000000000000000000 ) ) ;
#165 = EDGE_CURVE ( 'NONE', #350, #18, #80, .T. ) ;
#166 = CIRCLE ( 'NONE', #56, 9.999999999999998200 ) ;
#167 = ORIENTED_EDGE ( 'NONE', *, *, #165, .F. ) ;
#168 = COORDINATED_UNIVERSAL_TIME_OFFSET ( 9, 0, .AHEAD. ) ;
#169 = CARTESIAN_POINT ( 'NONE',  ( -6.123233995736766300E-016, 10.00000000000000000, 0.0000000000000000000 ) ) ;
#170 = EDGE_CURVE ( 'NONE', #338, #350, #68, .T. ) ;
#171 = ORIENTED_EDGE ( 'NONE', *, *, #109, .F. ) ;
#172 = DIRECTION ( 'NONE',  ( -6.505213034913026600E-017, 1.000000000000000000, 0.0000000000000000000 ) ) ;
#173 = CYLINDRICAL_SURFACE ( 'NONE', #225, 10.00000000000000000 ) ;
#174 = ADVANCED_BREP_SHAPE_REPRESENTATION ( '03-3212', ( #337, #232, #314 ), #253 ) ;
#175 = EDGE_CURVE ( 'NONE', #54, #272, #354, .T. ) ;
#176 = DIRECTION ( 'NONE',  ( 1.000000000000000000, 6.123233995736766000E-017, -0.0000000000000000000 ) ) ;
#177 = ORIENTED_EDGE ( 'NONE', *, *, #196, .T. ) ;
#178 = LOCAL_TIME ( 9, 25, 51.00000000000000000, #245 ) ;
#179 = EDGE_CURVE ( 'NONE', #272, #251, #135, .T. ) ;
#180 = FACE_OUTER_BOUND ( 'NONE', #324, .T. ) ;
#181 = CC_DESIGN_PERSON_AND_ORGANIZATION_ASSIGNMENT ( #5, #119, ( #90 ) ) ;
#182 = DIRECTION ( 'NONE',  ( 1.000000000000000000, 6.123233995736766000E-017, -0.0000000000000000000 ) ) ;
#183 = ORIENTED_EDGE ( 'NONE', *, *, #151, .F. ) ;
#184 = EDGE_CURVE ( 'NONE', #54, #338, #79, .T. ) ;
#185 = CARTESIAN_POINT ( 'NONE',  ( 0.9999999999999972200, 10.00000000000000000, 0.0000000000000000000 ) ) ;
#186 = APPROVAL_DATE_TIME ( #252, #112 ) ;
#187 = DIRECTION ( 'NONE',  ( 1.000000000000000000, 0.0000000000000000000, 0.0000000000000000000 ) ) ;
#188 = ADVANCED_FACE ( 'NONE', ( #322 ), #133, .T. ) ;
#189 = AXIS2_PLACEMENT_3D ( 'NONE', #55, #182, #281 ) ;
#190 = PLANE ( 'NONE',  #146 ) ;
#191 = FACE_OUTER_BOUND ( 'NONE', #4, .T. ) ;
#192 = EDGE_CURVE ( 'NONE', #18, #350, #276, .T. ) ;
#193 = APPROVAL_ROLE ( '' ) ;
#194 = CIRCLE ( 'NONE', #22, 9.499999999999994700 ) ;
#195 = CARTESIAN_POINT ( 'NONE',  ( 65.60000000000000900, 0.0000000000000000000, 0.0000000000000000000 ) ) ;
#196 = EDGE_CURVE ( 'NONE', #272, #54, #194, .T. ) ;
#197 = EDGE_LOOP ( 'NONE', ( #19, #36 ) ) ;
#198 = APPROVAL_PERSON_ORGANIZATION ( #259, #112, #17 ) ;
#199 = CARTESIAN_POINT ( 'NONE',  ( 66.00000000000000000, 0.0000000000000000000, 0.0000000000000000000 ) ) ;
#200 = EDGE_CURVE ( 'NONE', #251, #338, #254, .T. ) ;
#201 = CARTESIAN_POINT ( 'NONE',  ( 65.60000000000000900, 1.224646799147353100E-015, -9.999999999999998200 ) ) ;
#202 = DIRECTION ( 'NONE',  ( 1.000000000000000000, 6.123233995736766000E-017, -0.0000000000000000000 ) ) ;
#203 = SECURITY_CLASSIFICATION ( '', '', #303 ) ;
#204 = DIRECTION ( 'NONE',  ( 0.0000000000000000000, 1.000000000000000000, 0.0000000000000000000 ) ) ;
#205 = EDGE_LOOP ( 'NONE', ( #44, #177, #62, #278 ) ) ;
#206 = CARTESIAN_POINT ( 'NONE',  ( -73.50000000000001400, -4.500576986866523800E-015, 0.0000000000000000000 ) ) ;
#207 = PERSON ( 'UNSPECIFIED', 'UNSPECIFIED', 'UNSPECIFIED', ('UNSPECIFIED'), ('UNSPECIFIED'), ('UNSPECIFIED') ) ;
#208 = COORDINATED_UNIVERSAL_TIME_OFFSET ( 9, 0, .AHEAD. ) ;
#209 = DIRECTION ( 'NONE',  ( -1.000000000000000000, 0.0000000000000000000, -0.0000000000000000000 ) ) ;
#210 = ORIENTED_EDGE ( 'NONE', *, *, #109, .T. ) ;
#211 = LOCAL_TIME ( 9, 25, 51.00000000000000000, #274 ) ;
#212 = APPLICATION_PROTOCOL_DEFINITION ( 'international standard', 'config_control_design', 1994, #343 ) ;
#213 = PERSON_AND_ORGANIZATION_ROLE ( 'design_owner' ) ;
#214 = FACE_OUTER_BOUND ( 'NONE', #332, .T. ) ;
#215 = APPROVAL_STATUS ( 'not_yet_approved' ) ;
#216 = ADVANCED_FACE ( 'NONE', ( #214 ), #247, .T. ) ;
#217 = DIRECTION ( 'NONE',  ( 0.0000000000000000000, 0.0000000000000000000, -1.000000000000000000 ) ) ;
#218 = DATE_TIME_ROLE ( 'creation_date' ) ;
#219 = ORIENTED_EDGE ( 'NONE', *, *, #124, .F. ) ;
#220 = CC_DESIGN_PERSON_AND_ORGANIZATION_ASSIGNMENT ( #301, #158, ( #203 ) ) ;
#221 = CARTESIAN_POINT ( 'NONE',  ( 65.60000000000000900, 1.175660927181459000E-015, -9.600000000000001400 ) ) ;
#222 = ORGANIZATION ( 'UNSPECIFIED', 'UNSPECIFIED', '' ) ;
#223 = DIRECTION ( 'NONE',  ( 0.0000000000000000000, 0.0000000000000000000, 1.000000000000000000 ) ) ;
#224 = CIRCLE ( 'NONE', #27, 9.600000000000001400 ) ;
#225 = AXIS2_PLACEMENT_3D ( 'NONE', #114, #20, #325 ) ;
#226 = CARTESIAN_POINT ( 'NONE',  ( -73.50000000000001400, -10.00000000000000000, 1.224646799147352700E-015 ) ) ;
#227 = ORIENTED_EDGE ( 'NONE', *, *, #95, .F. ) ;
#228 = DIRECTION ( 'NONE',  ( 0.0000000000000000000, 0.0000000000000000000, -1.000000000000000000 ) ) ;
#229 = CIRCLE ( 'NONE', #39, 0.3999999999999975800 ) ;
#230 = APPROVAL_DATE_TIME ( #291, #249 ) ;
#231 = AXIS2_PLACEMENT_3D ( 'NONE', #206, #271, #106 ) ;
#232 = MANIFOLD_SOLID_BREP ( 'È¸Àü4', #360 ) ;
#233 = CARTESIAN_POINT ( 'NONE',  ( 0.0000000000000000000, 0.0000000000000000000, 0.0000000000000000000 ) ) ;
#234 = CC_DESIGN_DATE_AND_TIME_ASSIGNMENT ( #356, #261, ( #203 ) ) ;
#235 = TOROIDAL_SURFACE ( 'NONE', #33, 9.600000000000001400, 0.3999999999999975800 ) ;
#236 = APPROVAL_PERSON_ORGANIZATION ( #297, #249, #285 ) ;
#237 = APPLICATION_CONTEXT ( 'configuration controlled 3d designs of mechanical parts and assemblies' ) ;
#238 = DIRECTION ( 'NONE',  ( 0.0000000000000000000, 1.000000000000000000, 0.0000000000000000000 ) ) ;
#239 = ADVANCED_FACE ( 'NONE', ( #191 ), #89, .T. ) ;
#240 = AXIS2_PLACEMENT_3D ( 'NONE', #256, #49, #126 ) ;
#241 = CARTESIAN_POINT ( 'NONE',  ( -74.00000000000001400, -9.500000000000000000, 1.194030629168668700E-015 ) ) ;
#242 = FACE_OUTER_BOUND ( 'NONE', #32, .T. ) ;
#243 = DIRECTION ( 'NONE',  ( 0.0000000000000000000, -1.224646799147353900E-016, 1.000000000000000000 ) ) ;
#244 = ORIENTED_EDGE ( 'NONE', *, *, #157, .T. ) ;
#245 = COORDINATED_UNIVERSAL_TIME_OFFSET ( 9, 0, .AHEAD. ) ;
#246 = DIRECTION ( 'NONE',  ( 0.7071067811865475700, -0.7071067811865474600, 8.659560562354931600E-017 ) ) ;
#247 = CYLINDRICAL_SURFACE ( 'NONE', #100, 9.999999999999998200 ) ;
#248 = DIRECTION ( 'NONE',  ( -1.000000000000000000, -0.0000000000000000000, -0.0000000000000000000 ) ) ;
#249 = APPROVAL ( #84, 'UNSPECIFIED' ) ;
#250 = CARTESIAN_POINT ( 'NONE',  ( 0.9999999999999997800, 0.0000000000000000000, 0.0000000000000000000 ) ) ;
#251 = VERTEX_POINT ( 'NONE', #160 ) ;
#252 = DATE_AND_TIME ( #310, #14 ) ;
#253 =( GEOMETRIC_REPRESENTATION_CONTEXT ( 3 ) GLOBAL_UNCERTAINTY_ASSIGNED_CONTEXT ( ( #288 ) ) GLOBAL_UNIT_ASSIGNED_CONTEXT ( ( #258, #77, #306 ) ) REPRESENTATION_CONTEXT ( 'NONE', 'WORKASPACE' ) );
#254 = CIRCLE ( 'NONE', #45, 9.999999999999994700 ) ;
#255 = DIRECTION ( 'NONE',  ( 1.000000000000000000, 6.123233995736766000E-017, -0.0000000000000000000 ) ) ;
#256 = CARTESIAN_POINT ( 'NONE',  ( -74.00000000000001400, -4.531193156845207600E-015, 0.0000000000000000000 ) ) ;
#257 = ORIENTED_EDGE ( 'NONE', *, *, #192, .F. ) ;
#258 =( LENGTH_UNIT ( ) NAMED_UNIT ( * ) SI_UNIT ( .MILLI., .METRE. ) );
#259 = PERSON_AND_ORGANIZATION ( #207, #222 ) ;
#260 = DIRECTION ( 'NONE',  ( 0.0000000000000000000, 0.0000000000000000000, 1.000000000000000000 ) ) ;
#261 = DATE_TIME_ROLE ( 'classification_date' ) ;
#262 = ADVANCED_FACE ( 'NONE', ( #180 ), #190, .F. ) ;
#263 = DIRECTION ( 'NONE',  ( 0.0000000000000000000, 0.0000000000000000000, 1.000000000000000000 ) ) ;
#264 = CC_DESIGN_APPROVAL ( #249, ( #203 ) ) ;
#265 = DIRECTION ( 'NONE',  ( -1.000000000000000000, -0.0000000000000000000, -0.0000000000000000000 ) ) ;
#266 = VERTEX_POINT ( 'NONE', #304 ) ;
#267 = PERSON_AND_ORGANIZATION ( #207, #222 ) ;
#268 = PLANE ( 'NONE',  #58 ) ;
#269 = AXIS2_PLACEMENT_3D ( 'NONE', #313, #125, #307 ) ;
#270 = DIRECTION ( 'NONE',  ( 1.000000000000000000, 6.123233995736766000E-017, -0.0000000000000000000 ) ) ;
#271 = DIRECTION ( 'NONE',  ( 1.000000000000000000, 6.123233995736766000E-017, -0.0000000000000000000 ) ) ;
#272 = VERTEX_POINT ( 'NONE', #241 ) ;
#273 = DIRECTION ( 'NONE',  ( 0.0000000000000000000, 0.0000000000000000000, 1.000000000000000000 ) ) ;
#274 = COORDINATED_UNIVERSAL_TIME_OFFSET ( 9, 0, .AHEAD. ) ;
#275 = CARTESIAN_POINT ( 'NONE',  ( 65.60000000000000900, 0.0000000000000000000, 9.600000000000001400 ) ) ;
#276 = CIRCLE ( 'NONE', #342, 10.00000000000000000 ) ;
#277 = LINE ( 'NONE', #317, #358 ) ;
#278 = ORIENTED_EDGE ( 'NONE', *, *, #200, .F. ) ;
#279 = DIRECTION ( 'NONE',  ( 0.0000000000000000000, 1.000000000000000000, 0.0000000000000000000 ) ) ;
#280 = CC_DESIGN_SECURITY_CLASSIFICATION ( #203, ( #90 ) ) ;
#281 = DIRECTION ( 'NONE',  ( -6.123233995736766000E-017, 1.000000000000000000, 0.0000000000000000000 ) ) ;
#282 = CARTESIAN_POINT ( 'NONE',  ( 0.0000000000000000000, 0.0000000000000000000, 0.0000000000000000000 ) ) ;
#283 = DIRECTION ( 'NONE',  ( 1.000000000000000000, 6.123233995736766000E-017, -0.0000000000000000000 ) ) ;
#284 = FACE_OUTER_BOUND ( 'NONE', #47, .T. ) ;
#285 = APPROVAL_ROLE ( '' ) ;
#286 = ADVANCED_FACE ( 'NONE', ( #9 ), #153, .T. ) ;
#287 = CARTESIAN_POINT ( 'NONE',  ( 65.60000000000000900, 0.0000000000000000000, 0.0000000000000000000 ) ) ;
#288 = UNCERTAINTY_MEASURE_WITH_UNIT (LENGTH_MEASURE( 1.000000000000000100E-005 ), #258, 'distance_accuracy_value', 'NONE');
#289 = CONICAL_SURFACE ( 'NONE', #74, 9.999999999999994700, 0.7853981633974482800 ) ;
#290 = CARTESIAN_POINT ( 'NONE',  ( 66.00000000000000000, 0.0000000000000000000, 0.0000000000000000000 ) ) ;
#291 = DATE_AND_TIME ( #346, #72 ) ;
#292 = CARTESIAN_POINT ( 'NONE',  ( 66.00000000000000000, 0.0000000000000000000, 9.600000000000001400 ) ) ;
#293 = CYLINDRICAL_SURFACE ( 'NONE', #269, 10.00000000000000000 ) ;
#294 = CARTESIAN_POINT ( 'NONE',  ( -73.50000000000001400, -4.500576986866523800E-015, 0.0000000000000000000 ) ) ;
#295 = PRODUCT_RELATED_PRODUCT_CATEGORY ( 'detail', '', ( #149 ) ) ;
#296 = LINE ( 'NONE', #61, #70 ) ;
#297 = PERSON_AND_ORGANIZATION ( #207, #222 ) ;
#298 = FACE_OUTER_BOUND ( 'NONE', #107, .T. ) ;
#299 = PERSON_AND_ORGANIZATION_ROLE ( 'creator' ) ;
#300 = ORIENTED_EDGE ( 'NONE', *, *, #116, .F. ) ;
#301 = PERSON_AND_ORGANIZATION ( #207, #222 ) ;
#302 = DIRECTION ( 'NONE',  ( -1.000000000000000000, -0.0000000000000000000, -0.0000000000000000000 ) ) ;
#303 = SECURITY_CLASSIFICATION_LEVEL ( 'unclassified' ) ;
#304 = CARTESIAN_POINT ( 'NONE',  ( 65.60000000000000900, 0.0000000000000000000, 9.999999999999998200 ) ) ;
#305 = ADVANCED_FACE ( 'NONE', ( #363 ), #173, .T. ) ;
#306 =( NAMED_UNIT ( * ) SI_UNIT ( $, .STERADIAN. ) SOLID_ANGLE_UNIT ( ) );
#307 = DIRECTION ( 'NONE',  ( -6.123233995736766000E-017, 1.000000000000000000, 0.0000000000000000000 ) ) ;
#308 = CARTESIAN_POINT ( 'NONE',  ( 65.60000000000000900, 0.0000000000000000000, 0.0000000000000000000 ) ) ;
#309 = ORIENTED_EDGE ( 'NONE', *, *, #170, .F. ) ;
#310 = CALENDAR_DATE ( 2023, 31, 7 ) ;
#311 = DIRECTION ( 'NONE',  ( 0.0000000000000000000, 0.0000000000000000000, 1.000000000000000000 ) ) ;
#312 = DIRECTION ( 'NONE',  ( 0.0000000000000000000, 1.000000000000000000, 0.0000000000000000000 ) ) ;
#313 = CARTESIAN_POINT ( 'NONE',  ( 0.0000000000000000000, 0.0000000000000000000, 0.0000000000000000000 ) ) ;
#314 = AXIS2_PLACEMENT_3D ( 'NONE', #282, #53, #187 ) ;
#315 = DIRECTION ( 'NONE',  ( 1.000000000000000000, 6.123233995736766000E-017, -0.0000000000000000000 ) ) ;
#316 = AXIS2_PLACEMENT_3D ( 'NONE', #359, #315, #172 ) ;
#317 = CARTESIAN_POINT ( 'NONE',  ( 6.123233995736766300E-016, -10.00000000000000000, 1.224646799147353300E-015 ) ) ;
#318 = ORIENTED_EDGE ( 'NONE', *, *, #157, .F. ) ;
#319 = DIRECTION ( 'NONE',  ( -1.000000000000000000, -0.0000000000000000000, -0.0000000000000000000 ) ) ;
#320 = DATE_AND_TIME ( #28, #115 ) ;
#321 = PRODUCT_DEFINITION_SHAPE ( 'NONE', 'NONE',  #341 ) ;
#322 = FACE_OUTER_BOUND ( 'NONE', #88, .T. ) ;
#323 = CARTESIAN_POINT ( 'NONE',  ( -74.00000000000001400, -4.531193156845207600E-015, 0.0000000000000000000 ) ) ;
#324 = EDGE_LOOP ( 'NONE', ( #25, #128 ) ) ;
#325 = DIRECTION ( 'NONE',  ( -6.123233995736766000E-017, 1.000000000000000000, 0.0000000000000000000 ) ) ;
#326 = APPROVAL_DATE_TIME ( #38, #362 ) ;
#327 = APPROVAL_STATUS ( 'not_yet_approved' ) ;
#328 = ADVANCED_FACE ( 'NONE', ( #298 ), #162, .T. ) ;
#329 = CC_DESIGN_PERSON_AND_ORGANIZATION_ASSIGNMENT ( #141, #213, ( #149 ) ) ;
#330 = APPLICATION_PROTOCOL_DEFINITION ( 'international standard', 'config_control_design', 1994, #237 ) ;
#331 = AXIS2_PLACEMENT_3D ( 'NONE', #64, #270, #104 ) ;
#332 = EDGE_LOOP ( 'NONE', ( #134, #12, #24, #111 ) ) ;
#333 = CARTESIAN_POINT ( 'NONE',  ( 0.0000000000000000000, 1.224646799147353100E-015, -9.999999999999998200 ) ) ;
#334 = APPROVAL_PERSON_ORGANIZATION ( #50, #362, #193 ) ;
#335 = CIRCLE ( 'NONE', #7, 10.00000000000000000 ) ;
#336 = CARTESIAN_POINT ( 'NONE',  ( -73.50000000000001400, 9.999999999999989300, 0.0000000000000000000 ) ) ;
#337 = MANIFOLD_SOLID_BREP ( 'È¸Àü3', #139 ) ;
#338 = VERTEX_POINT ( 'NONE', #76 ) ;
#339 = DIRECTION ( 'NONE',  ( 1.000000000000000000, 6.123233995736766000E-017, -0.0000000000000000000 ) ) ;
#340 = CIRCLE ( 'NONE', #51, 9.600000000000001400 ) ;
#341 = PRODUCT_DEFINITION ( 'UNKNOWN', '', #90, #131 ) ;
#342 = AXIS2_PLACEMENT_3D ( 'NONE', #118, #283, #81 ) ;
#343 = APPLICATION_CONTEXT ( 'configuration controlled 3d designs of mechanical parts and assemblies' ) ;
#344 = FACE_OUTER_BOUND ( 'NONE', #37, .T. ) ;
#345 = MECHANICAL_CONTEXT ( 'NONE', #237, 'mechanical' ) ;
#346 = CALENDAR_DATE ( 2023, 31, 7 ) ;
#347 = ADVANCED_FACE ( 'NONE', ( #242 ), #293, .T. ) ;
#348 = DIRECTION ( 'NONE',  ( 1.000000000000000000, 0.0000000000000000000, 0.0000000000000000000 ) ) ;
#349 = PERSON_AND_ORGANIZATION_ROLE ( 'creator' ) ;
#350 = VERTEX_POINT ( 'NONE', #185 ) ;
#351 = CARTESIAN_POINT ( 'NONE',  ( 0.9999999999999997800, 0.0000000000000000000, 0.0000000000000000000 ) ) ;
#352 = CIRCLE ( 'NONE', #63, 10.00000000000000000 ) ;
#353 = ORIENTED_EDGE ( 'NONE', *, *, #184, .F. ) ;
#354 = CIRCLE ( 'NONE', #331, 9.499999999999994700 ) ;
#355 = DIRECTION ( 'NONE',  ( -1.000000000000000000, -0.0000000000000000000, -0.0000000000000000000 ) ) ;
#356 = DATE_AND_TIME ( #82, #178 ) ;
#357 = VERTEX_POINT ( 'NONE', #117 ) ;
#358 = VECTOR ( 'NONE', #176, 1000.000000000000000 ) ;
#359 = CARTESIAN_POINT ( 'NONE',  ( 0.9999999999999978900, 6.123233995736752500E-017, 0.0000000000000000000 ) ) ;
#360 = CLOSED_SHELL ( 'NONE', ( #347, #159, #286, #328, #16, #305 ) ) ;
#361 = FACE_OUTER_BOUND ( 'NONE', #57, .T. ) ;
#362 = APPROVAL ( #327, 'UNSPECIFIED' ) ;
#363 = FACE_OUTER_BOUND ( 'NONE', #93, .T. ) ;
#364 = AXIS2_PLACEMENT_3D ( 'NONE', #287, #156, #91 ) ;
#365 = DIRECTION ( 'NONE',  ( 0.0000000000000000000, -1.000000000000000000, 0.0000000000000000000 ) ) ;
ENDSEC;
END-ISO-10303-21;
