ISO-10303-21;
HEADER;
FILE_DESCRIPTION (( 'STEP AP203' ),
    '1' );
FILE_NAME ('03-3213.STEP',
    '2023-07-31T00:26:09',
    ( 'USER' ),
    ( 'Hewlett-Packard Company' ),
    'SwSTEP 2.0',
    'SolidWorks 2014',
    '' );
FILE_SCHEMA (( 'CONFIG_CONTROL_DESIGN' ));
ENDSEC;

DATA;
#1 = EDGE_CURVE ( 'NONE', #93, #177, #22, .T. ) ;
#2 = ORIENTED_EDGE ( 'NONE', *, *, #248, .T. ) ;
#3 = DIRECTION ( 'NONE',  ( 0.0000000000000000000, 1.000000000000000000, 0.0000000000000000000 ) ) ;
#4 = AXIS2_PLACEMENT_3D ( 'NONE', #155, #355, #185 ) ;
#5 = ADVANCED_FACE ( 'NONE', ( #95 ), #86, .T. ) ;
#6 = FACE_OUTER_BOUND ( 'NONE', #62, .T. ) ;
#7 = APPROVAL_PERSON_ORGANIZATION ( #81, #34, #50 ) ;
#8 = ORIENTED_EDGE ( 'NONE', *, *, #146, .T. ) ;
#9 = AXIS2_PLACEMENT_3D ( 'NONE', #164, #363, #193 ) ;
#10 = DIRECTION ( 'NONE',  ( 1.000000000000000000, 0.0000000000000000000, 0.0000000000000000000 ) ) ;
#11 = CIRCLE ( 'NONE', #299, 9.199999999999999300 ) ;
#12 = DIRECTION ( 'NONE',  ( 0.7071067811865475700, -0.7071067811865474600, 8.659560562354931600E-017 ) ) ;
#13 = CC_DESIGN_DATE_AND_TIME_ASSIGNMENT ( #154, #20, ( #345 ) ) ;
#14 = COORDINATED_UNIVERSAL_TIME_OFFSET ( 9, 0, .AHEAD. ) ;
#15 = DIRECTION ( 'NONE',  ( 0.0000000000000000000, 1.000000000000000000, 0.0000000000000000000 ) ) ;
#16 = CARTESIAN_POINT ( 'NONE',  ( 0.9999999999999978900, 6.123233995736752500E-017, 0.0000000000000000000 ) ) ;
#17 = EDGE_CURVE ( 'NONE', #243, #28, #161, .T. ) ;
#18 = EDGE_LOOP ( 'NONE', ( #254, #183, #361, #338 ) ) ;
#19 = PERSON_AND_ORGANIZATION_ROLE ( 'design_owner' ) ;
#20 = DATE_TIME_ROLE ( 'classification_date' ) ;
#21 = AXIS2_PLACEMENT_3D ( 'NONE', #295, #239, #74 ) ;
#22 = CIRCLE ( 'NONE', #204, 9.999999999999994700 ) ;
#23 = DIRECTION ( 'NONE',  ( -1.000000000000000000, -0.0000000000000000000, -0.0000000000000000000 ) ) ;
#24 = DATE_AND_TIME ( #99, #173 ) ;
#25 = PERSON_AND_ORGANIZATION ( #244, #273 ) ;
#26 = CIRCLE ( 'NONE', #233, 9.499999999999994700 ) ;
#27 = DIRECTION ( 'NONE',  ( -6.123233995736766000E-017, 1.000000000000000000, 0.0000000000000000000 ) ) ;
#28 = VERTEX_POINT ( 'NONE', #141 ) ;
#29 = DIRECTION ( 'NONE',  ( -1.000000000000000000, -0.0000000000000000000, -0.0000000000000000000 ) ) ;
#30 = AXIS2_PLACEMENT_3D ( 'NONE', #82, #167, #278 ) ;
#31 = ORIENTED_EDGE ( 'NONE', *, *, #248, .F. ) ;
#32 = PERSON_AND_ORGANIZATION ( #244, #273 ) ;
#33 = ADVANCED_FACE ( 'NONE', ( #170 ), #79, .T. ) ;
#34 = APPROVAL ( #217, 'UNSPECIFIED' ) ;
#35 = CYLINDRICAL_SURFACE ( 'NONE', #276, 10.00000000000000200 ) ;
#36 = EDGE_LOOP ( 'NONE', ( #342, #87 ) ) ;
#37 = EDGE_CURVE ( 'NONE', #275, #255, #152, .T. ) ;
#38 = ORIENTED_EDGE ( 'NONE', *, *, #110, .F. ) ;
#39 =( GEOMETRIC_REPRESENTATION_CONTEXT ( 3 ) GLOBAL_UNCERTAINTY_ASSIGNED_CONTEXT ( ( #94 ) ) GLOBAL_UNIT_ASSIGNED_CONTEXT ( ( #214, #76, #272 ) ) REPRESENTATION_CONTEXT ( 'NONE', 'WORKASPACE' ) );
#40 = CARTESIAN_POINT ( 'NONE',  ( 0.9999999999999978900, 6.123233995736752500E-017, 0.0000000000000000000 ) ) ;
#41 = PERSON_AND_ORGANIZATION ( #244, #273 ) ;
#42 = VECTOR ( 'NONE', #12, 1000.000000000000000 ) ;
#43 = DIRECTION ( 'NONE',  ( 1.000000000000000000, 6.123233995736766000E-017, -0.0000000000000000000 ) ) ;
#44 = ORIENTED_EDGE ( 'NONE', *, *, #365, .F. ) ;
#45 = DIRECTION ( 'NONE',  ( -6.505213034913026600E-017, 1.000000000000000000, 0.0000000000000000000 ) ) ;
#46 = DESIGN_CONTEXT ( 'detailed design', #216, 'design' ) ;
#47 = APPLICATION_PROTOCOL_DEFINITION ( 'international standard', 'config_control_design', 1994, #216 ) ;
#48 = AXIS2_PLACEMENT_3D ( 'NONE', #121, #321, #148 ) ;
#49 = ORIENTED_EDGE ( 'NONE', *, *, #307, .T. ) ;
#50 = APPROVAL_ROLE ( '' ) ;
#51 = COORDINATED_UNIVERSAL_TIME_OFFSET ( 9, 0, .AHEAD. ) ;
#52 = CARTESIAN_POINT ( 'NONE',  ( 0.0000000000000000000, 0.0000000000000000000, 0.0000000000000000000 ) ) ;
#53 = CC_DESIGN_APPROVAL ( #34, ( #345 ) ) ;
#54 = VECTOR ( 'NONE', #291, 1000.000000000000000 ) ;
#55 = EDGE_CURVE ( 'NONE', #123, #319, #11, .T. ) ;
#56 = CARTESIAN_POINT ( 'NONE',  ( -73.50000000000001400, -4.500576986866523800E-015, 0.0000000000000000000 ) ) ;
#57 = DIRECTION ( 'NONE',  ( -1.000000000000000000, -0.0000000000000000000, -0.0000000000000000000 ) ) ;
#58 = EDGE_LOOP ( 'NONE', ( #156, #249, #61, #31 ) ) ;
#59 = ADVANCED_FACE ( 'NONE', ( #226 ), #301, .T. ) ;
#60 = VECTOR ( 'NONE', #341, 1000.000000000000000 ) ;
#61 = ORIENTED_EDGE ( 'NONE', *, *, #347, .F. ) ;
#62 = EDGE_LOOP ( 'NONE', ( #194, #144, #108, #83 ) ) ;
#63 = AXIS2_PLACEMENT_3D ( 'NONE', #201, #303, #134 ) ;
#64 = MANIFOLD_SOLID_BREP ( 'È¸Àü3', #259 ) ;
#65 = DIRECTION ( 'NONE',  ( -1.000000000000000000, -0.0000000000000000000, -0.0000000000000000000 ) ) ;
#66 = CARTESIAN_POINT ( 'NONE',  ( -74.00000000000001400, -4.531193156845207600E-015, 0.0000000000000000000 ) ) ;
#67 = DIRECTION ( 'NONE',  ( -6.505213034913026600E-017, 1.000000000000000000, 0.0000000000000000000 ) ) ;
#68 = CYLINDRICAL_SURFACE ( 'NONE', #30, 10.00000000000000000 ) ;
#69 = CLOSED_SHELL ( 'NONE', ( #5, #33, #315, #227, #287, #88 ) ) ;
#70 = DIRECTION ( 'NONE',  ( 1.000000000000000000, 6.123233995736766000E-017, -0.0000000000000000000 ) ) ;
#71 = CC_DESIGN_SECURITY_CLASSIFICATION ( #345, ( #245 ) ) ;
#72 = PLANE ( 'NONE',  #335 ) ;
#73 = DATE_AND_TIME ( #145, #221 ) ;
#74 = DIRECTION ( 'NONE',  ( -0.0000000000000000000, 0.0000000000000000000, 1.000000000000000000 ) ) ;
#75 = EDGE_CURVE ( 'NONE', #319, #255, #313, .T. ) ;
#76 =( NAMED_UNIT ( * ) PLANE_ANGLE_UNIT ( ) SI_UNIT ( $, .RADIAN. ) );
#77 = EDGE_LOOP ( 'NONE', ( #166, #282 ) ) ;
#78 = APPROVAL_ROLE ( '' ) ;
#79 = CONICAL_SURFACE ( 'NONE', #223, 9.999999999999994700, 0.7853981633974482800 ) ;
#80 = CARTESIAN_POINT ( 'NONE',  ( 0.0000000000000000000, 0.0000000000000000000, 0.0000000000000000000 ) ) ;
#81 = PERSON_AND_ORGANIZATION ( #244, #273 ) ;
#82 = CARTESIAN_POINT ( 'NONE',  ( 0.0000000000000000000, 0.0000000000000000000, 0.0000000000000000000 ) ) ;
#83 = ORIENTED_EDGE ( 'NONE', *, *, #17, .F. ) ;
#84 = CARTESIAN_POINT ( 'NONE',  ( 65.20000000000000300, 0.0000000000000000000, 9.199999999999999300 ) ) ;
#85 = AXIS2_PLACEMENT_3D ( 'NONE', #52, #284, #305 ) ;
#86 = CYLINDRICAL_SURFACE ( 'NONE', #260, 10.00000000000000000 ) ;
#87 = ORIENTED_EDGE ( 'NONE', *, *, #230, .T. ) ;
#88 = ADVANCED_FACE ( 'NONE', ( #235 ), #68, .T. ) ;
#89 = PERSON_AND_ORGANIZATION ( #244, #273 ) ;
#90 = PRODUCT_RELATED_PRODUCT_CATEGORY ( 'detail', '', ( #198 ) ) ;
#91 = CIRCLE ( 'NONE', #4, 9.999999999999994700 ) ;
#92 = EDGE_CURVE ( 'NONE', #123, #275, #143, .T. ) ;
#93 = VERTEX_POINT ( 'NONE', #137 ) ;
#94 = UNCERTAINTY_MEASURE_WITH_UNIT (LENGTH_MEASURE( 1.000000000000000100E-005 ), #214, 'distance_accuracy_value', 'NONE');
#95 = FACE_OUTER_BOUND ( 'NONE', #210, .T. ) ;
#96 = DIRECTION ( 'NONE',  ( 0.0000000000000000000, 1.000000000000000000, 0.0000000000000000000 ) ) ;
#97 = ORIENTED_EDGE ( 'NONE', *, *, #17, .T. ) ;
#98 = DIRECTION ( 'NONE',  ( 0.7071067811865475700, 0.7071067811865474600, 0.0000000000000000000 ) ) ;
#99 = CALENDAR_DATE ( 2023, 31, 7 ) ;
#100 = DIRECTION ( 'NONE',  ( -6.123233995736766000E-017, 1.000000000000000000, 0.0000000000000000000 ) ) ;
#101 = FACE_OUTER_BOUND ( 'NONE', #131, .T. ) ;
#102 = VERTEX_POINT ( 'NONE', #139 ) ;
#103 = DATE_TIME_ROLE ( 'creation_date' ) ;
#104 = ORIENTED_EDGE ( 'NONE', *, *, #270, .F. ) ;
#105 = DATE_AND_TIME ( #179, #257 ) ;
#106 = CARTESIAN_POINT ( 'NONE',  ( 0.0000000000000000000, 1.224646799147353500E-015, -10.00000000000000200 ) ) ;
#107 = LINE ( 'NONE', #153, #42 ) ;
#108 = ORIENTED_EDGE ( 'NONE', *, *, #186, .T. ) ;
#109 = DIRECTION ( 'NONE',  ( -1.000000000000000000, -0.0000000000000000000, -0.0000000000000000000 ) ) ;
#110 = EDGE_CURVE ( 'NONE', #319, #123, #292, .T. ) ;
#111 = DIRECTION ( 'NONE',  ( 0.0000000000000000000, 0.0000000000000000000, -1.000000000000000000 ) ) ;
#112 = ORIENTED_EDGE ( 'NONE', *, *, #1, .F. ) ;
#113 = DIRECTION ( 'NONE',  ( -1.000000000000000000, -0.0000000000000000000, -0.0000000000000000000 ) ) ;
#114 = AXIS2_PLACEMENT_3D ( 'NONE', #271, #158, #356 ) ;
#115 = ADVANCED_FACE ( 'NONE', ( #6 ), #135, .T. ) ;
#116 = APPROVAL_DATE_TIME ( #190, #171 ) ;
#117 = SHAPE_DEFINITION_REPRESENTATION ( #251, #120 ) ;
#118 = CIRCLE ( 'NONE', #200, 10.00000000000000000 ) ;
#119 = EDGE_LOOP ( 'NONE', ( #44, #224, #49, #136 ) ) ;
#120 = ADVANCED_BREP_SHAPE_REPRESENTATION ( '03-3213', ( #64, #157, #114 ), #39 ) ;
#121 = CARTESIAN_POINT ( 'NONE',  ( 0.9999999999999997800, 0.0000000000000000000, 0.0000000000000000000 ) ) ;
#122 = AXIS2_PLACEMENT_3D ( 'NONE', #66, #263, #96 ) ;
#123 = VERTEX_POINT ( 'NONE', #247 ) ;
#124 = CARTESIAN_POINT ( 'NONE',  ( 0.9999999999999985600, -10.00000000000000000, 1.224646799147353300E-015 ) ) ;
#125 = DIRECTION ( 'NONE',  ( -1.000000000000000000, -6.123233995736766000E-017, 0.0000000000000000000 ) ) ;
#126 = CARTESIAN_POINT ( 'NONE',  ( 65.20000000000000300, 0.0000000000000000000, 9.999999999999996400 ) ) ;
#127 = CIRCLE ( 'NONE', #122, 9.499999999999994700 ) ;
#128 = CARTESIAN_POINT ( 'NONE',  ( -6.123233995736766300E-016, 10.00000000000000000, 0.0000000000000000000 ) ) ;
#129 = CARTESIAN_POINT ( 'NONE',  ( 6.123233995736766300E-016, -10.00000000000000000, 1.224646799147353300E-015 ) ) ;
#130 = EDGE_CURVE ( 'NONE', #255, #275, #219, .T. ) ;
#131 = EDGE_LOOP ( 'NONE', ( #38, #231 ) ) ;
#132 = APPROVAL_ROLE ( '' ) ;
#133 = CC_DESIGN_PERSON_AND_ORGANIZATION_ASSIGNMENT ( #351, #19, ( #198 ) ) ;
#134 = DIRECTION ( 'NONE',  ( 0.0000000000000000000, 0.0000000000000000000, 1.000000000000000000 ) ) ;
#135 = CYLINDRICAL_SURFACE ( 'NONE', #85, 10.00000000000000200 ) ;
#136 = ORIENTED_EDGE ( 'NONE', *, *, #230, .F. ) ;
#137 = CARTESIAN_POINT ( 'NONE',  ( -73.50000000000001400, -10.00000000000000000, 1.224646799147352700E-015 ) ) ;
#138 = DIRECTION ( 'NONE',  ( 0.0000000000000000000, 0.0000000000000000000, 1.000000000000000000 ) ) ;
#139 = CARTESIAN_POINT ( 'NONE',  ( -74.00000000000001400, -9.500000000000000000, 1.194030629168668700E-015 ) ) ;
#140 = ORIENTED_EDGE ( 'NONE', *, *, #75, .F. ) ;
#141 = CARTESIAN_POINT ( 'NONE',  ( 0.9999999999999997800, 0.0000000000000000000, 10.00000000000000000 ) ) ;
#142 = AXIS2_PLACEMENT_3D ( 'NONE', #176, #10, #206 ) ;
#143 = CIRCLE ( 'NONE', #9, 0.7999999999999917200 ) ;
#144 = ORIENTED_EDGE ( 'NONE', *, *, #37, .T. ) ;
#145 = CALENDAR_DATE ( 2023, 31, 7 ) ;
#146 = EDGE_CURVE ( 'NONE', #275, #243, #286, .T. ) ;
#147 = EDGE_LOOP ( 'NONE', ( #199, #8, #314, #310 ) ) ;
#148 = DIRECTION ( 'NONE',  ( 0.0000000000000000000, 0.0000000000000000000, 1.000000000000000000 ) ) ;
#149 = CARTESIAN_POINT ( 'NONE',  ( 65.20000000000000300, 0.0000000000000000000, 0.0000000000000000000 ) ) ;
#150 = CARTESIAN_POINT ( 'NONE',  ( 0.9999999999999997800, 1.224646799147353300E-015, -10.00000000000000000 ) ) ;
#151 = PRODUCT_DEFINITION ( 'UNKNOWN', '', #245, #46 ) ;
#152 = CIRCLE ( 'NONE', #281, 10.00000000000000200 ) ;
#153 = CARTESIAN_POINT ( 'NONE',  ( -73.50000000000001400, -10.00000000000000000, 1.224646799147352700E-015 ) ) ;
#154 = DATE_AND_TIME ( #229, #306 ) ;
#155 = CARTESIAN_POINT ( 'NONE',  ( -73.50000000000001400, -4.500576986866523800E-015, 0.0000000000000000000 ) ) ;
#156 = ORIENTED_EDGE ( 'NONE', *, *, #289, .T. ) ;
#157 = MANIFOLD_SOLID_BREP ( 'È¸Àü4', #69 ) ;
#158 = DIRECTION ( 'NONE',  ( 0.0000000000000000000, 0.0000000000000000000, 1.000000000000000000 ) ) ;
#159 = PERSON_AND_ORGANIZATION_ROLE ( 'design_supplier' ) ;
#160 = AXIS2_PLACEMENT_3D ( 'NONE', #149, #65, #350 ) ;
#161 = CIRCLE ( 'NONE', #241, 10.00000000000000000 ) ;
#162 = DIRECTION ( 'NONE',  ( 0.0000000000000000000, 0.0000000000000000000, 1.000000000000000000 ) ) ;
#163 = PERSON_AND_ORGANIZATION ( #244, #273 ) ;
#164 = CARTESIAN_POINT ( 'NONE',  ( 65.20000000000000300, 1.126675055215564800E-015, -9.199999999999999300 ) ) ;
#165 = CIRCLE ( 'NONE', #312, 10.00000000000000000 ) ;
#166 = ORIENTED_EDGE ( 'NONE', *, *, #289, .F. ) ;
#167 = DIRECTION ( 'NONE',  ( 1.000000000000000000, 6.123233995736766000E-017, -0.0000000000000000000 ) ) ;
#168 = EDGE_CURVE ( 'NONE', #28, #243, #208, .T. ) ;
#169 = CARTESIAN_POINT ( 'NONE',  ( -73.50000000000001400, 9.999999999999989300, 0.0000000000000000000 ) ) ;
#170 = FACE_OUTER_BOUND ( 'NONE', #58, .T. ) ;
#171 = APPROVAL ( #242, 'UNSPECIFIED' ) ;
#172 = ADVANCED_FACE ( 'NONE', ( #353 ), #349, .F. ) ;
#173 = LOCAL_TIME ( 9, 26, 9.000000000000000000, #246 ) ;
#174 = LINE ( 'NONE', #128, #268 ) ;
#175 = ORIENTED_EDGE ( 'NONE', *, *, #130, .F. ) ;
#176 = CARTESIAN_POINT ( 'NONE',  ( 1.000000000000000400, 1.084202172485505400E-016, 0.0000000000000000000 ) ) ;
#177 = VERTEX_POINT ( 'NONE', #169 ) ;
#178 = CARTESIAN_POINT ( 'NONE',  ( -73.50000000000001400, 9.999999999999989300, 0.0000000000000000000 ) ) ;
#179 = CALENDAR_DATE ( 2023, 31, 7 ) ;
#180 = CARTESIAN_POINT ( 'NONE',  ( -73.50000000000001400, -4.500576986866523800E-015, 0.0000000000000000000 ) ) ;
#181 = DIRECTION ( 'NONE',  ( 1.000000000000000000, 6.123233995736766000E-017, -0.0000000000000000000 ) ) ;
#182 = FACE_OUTER_BOUND ( 'NONE', #147, .T. ) ;
#183 = ORIENTED_EDGE ( 'NONE', *, *, #55, .T. ) ;
#184 = PLANE ( 'NONE',  #21 ) ;
#185 = DIRECTION ( 'NONE',  ( 0.0000000000000000000, 1.000000000000000000, 0.0000000000000000000 ) ) ;
#186 = EDGE_CURVE ( 'NONE', #255, #28, #277, .T. ) ;
#187 = MECHANICAL_CONTEXT ( 'NONE', #332, 'mechanical' ) ;
#188 = PERSON_AND_ORGANIZATION_ROLE ( 'classification_officer' ) ;
#189 = VERTEX_POINT ( 'NONE', #262 ) ;
#190 = DATE_AND_TIME ( #264, #343 ) ;
#191 = CC_DESIGN_APPROVAL ( #171, ( #151 ) ) ;
#192 = FACE_OUTER_BOUND ( 'NONE', #77, .T. ) ;
#193 = DIRECTION ( 'NONE',  ( 0.0000000000000000000, -1.224646799147352000E-016, 1.000000000000000000 ) ) ;
#194 = ORIENTED_EDGE ( 'NONE', *, *, #146, .F. ) ;
#195 = CARTESIAN_POINT ( 'NONE',  ( -73.50000000000001400, -4.500576986866523800E-015, 0.0000000000000000000 ) ) ;
#196 = DIRECTION ( 'NONE',  ( 1.000000000000000000, 6.123233995736766000E-017, -0.0000000000000000000 ) ) ;
#197 = CARTESIAN_POINT ( 'NONE',  ( 65.20000000000000300, 0.0000000000000000000, 0.0000000000000000000 ) ) ;
#198 = PRODUCT ( '03-3213', '03-3213', '', ( #187 ) ) ;
#199 = ORIENTED_EDGE ( 'NONE', *, *, #130, .T. ) ;
#200 = AXIS2_PLACEMENT_3D ( 'NONE', #40, #236, #67 ) ;
#201 = CARTESIAN_POINT ( 'NONE',  ( 65.20000000000000300, 0.0000000000000000000, 0.0000000000000000000 ) ) ;
#202 = ADVANCED_FACE ( 'NONE', ( #346 ), #203, .T. ) ;
#203 = TOROIDAL_SURFACE ( 'NONE', #160, 9.199999999999999300, 0.7999999999999917200 ) ;
#204 = AXIS2_PLACEMENT_3D ( 'NONE', #195, #250, #3 ) ;
#205 = ORIENTED_EDGE ( 'NONE', *, *, #110, .T. ) ;
#206 = DIRECTION ( 'NONE',  ( 0.0000000000000000000, 0.0000000000000000000, -1.000000000000000000 ) ) ;
#207 = CC_DESIGN_PERSON_AND_ORGANIZATION_ASSIGNMENT ( #41, #274, ( #151 ) ) ;
#208 = CIRCLE ( 'NONE', #48, 10.00000000000000000 ) ;
#209 = CARTESIAN_POINT ( 'NONE',  ( 65.20000000000000300, 1.224646799147352700E-015, -9.999999999999996400 ) ) ;
#210 = EDGE_LOOP ( 'NONE', ( #302, #334, #348, #290 ) ) ;
#211 = CARTESIAN_POINT ( 'NONE',  ( 0.9999999999999985600, 10.00000000000000000, 0.0000000000000000000 ) ) ;
#212 = EDGE_CURVE ( 'NONE', #102, #297, #127, .T. ) ;
#213 = DIRECTION ( 'NONE',  ( 1.000000000000000000, 6.123233995736766000E-017, -0.0000000000000000000 ) ) ;
#214 =( LENGTH_UNIT ( ) NAMED_UNIT ( * ) SI_UNIT ( .MILLI., .METRE. ) );
#215 = VERTEX_POINT ( 'NONE', #124 ) ;
#216 = APPLICATION_CONTEXT ( 'configuration controlled 3d designs of mechanical parts and assemblies' ) ;
#217 = APPROVAL_STATUS ( 'not_yet_approved' ) ;
#218 = AXIS2_PLACEMENT_3D ( 'NONE', #234, #125, #324 ) ;
#219 = CIRCLE ( 'NONE', #63, 10.00000000000000200 ) ;
#220 = CARTESIAN_POINT ( 'NONE',  ( 65.99999999999998600, 0.0000000000000000000, 0.0000000000000000000 ) ) ;
#221 = LOCAL_TIME ( 9, 26, 9.000000000000000000, #294 ) ;
#222 = DIRECTION ( 'NONE',  ( 1.000000000000000000, 6.123233995736766000E-017, -0.0000000000000000000 ) ) ;
#223 = AXIS2_PLACEMENT_3D ( 'NONE', #56, #196, #252 ) ;
#224 = ORIENTED_EDGE ( 'NONE', *, *, #1, .T. ) ;
#225 = CARTESIAN_POINT ( 'NONE',  ( 65.20000000000000300, 0.0000000000000000000, 0.0000000000000000000 ) ) ;
#226 = FACE_OUTER_BOUND ( 'NONE', #288, .T. ) ;
#227 = ADVANCED_FACE ( 'NONE', ( #192 ), #322, .T. ) ;
#228 = CC_DESIGN_DATE_AND_TIME_ASSIGNMENT ( #105, #103, ( #151 ) ) ;
#229 = CALENDAR_DATE ( 2023, 31, 7 ) ;
#230 = EDGE_CURVE ( 'NONE', #215, #189, #118, .T. ) ;
#231 = ORIENTED_EDGE ( 'NONE', *, *, #55, .F. ) ;
#232 = CARTESIAN_POINT ( 'NONE',  ( 0.0000000000000000000, 0.0000000000000000000, 10.00000000000000200 ) ) ;
#233 = AXIS2_PLACEMENT_3D ( 'NONE', #354, #181, #15 ) ;
#234 = CARTESIAN_POINT ( 'NONE',  ( -74.00000000000001400, -4.531193156845207600E-015, 0.0000000000000000000 ) ) ;
#235 = FACE_OUTER_BOUND ( 'NONE', #119, .T. ) ;
#236 = DIRECTION ( 'NONE',  ( 1.000000000000000000, 6.123233995736766000E-017, -0.0000000000000000000 ) ) ;
#237 = PERSON_AND_ORGANIZATION ( #244, #273 ) ;
#238 = LINE ( 'NONE', #129, #308 ) ;
#239 = DIRECTION ( 'NONE',  ( -1.000000000000000000, 0.0000000000000000000, -0.0000000000000000000 ) ) ;
#240 = EDGE_LOOP ( 'NONE', ( #104, #331, #2, #112 ) ) ;
#241 = AXIS2_PLACEMENT_3D ( 'NONE', #283, #113, #311 ) ;
#242 = APPROVAL_STATUS ( 'not_yet_approved' ) ;
#243 = VERTEX_POINT ( 'NONE', #150 ) ;
#244 = PERSON ( 'UNSPECIFIED', 'UNSPECIFIED', 'UNSPECIFIED', ('UNSPECIFIED'), ('UNSPECIFIED'), ('UNSPECIFIED') ) ;
#245 = PRODUCT_DEFINITION_FORMATION_WITH_SPECIFIED_SOURCE ( 'ANY', '', #198, .NOT_KNOWN. ) ;
#246 = COORDINATED_UNIVERSAL_TIME_OFFSET ( 9, 0, .AHEAD. ) ;
#247 = CARTESIAN_POINT ( 'NONE',  ( 65.99999999999998600, 1.175660927181458600E-015, -9.199999999999999300 ) ) ;
#248 = EDGE_CURVE ( 'NONE', #297, #177, #337, .T. ) ;
#249 = ORIENTED_EDGE ( 'NONE', *, *, #270, .T. ) ;
#250 = DIRECTION ( 'NONE',  ( 1.000000000000000000, 6.123233995736766000E-017, -0.0000000000000000000 ) ) ;
#251 = PRODUCT_DEFINITION_SHAPE ( 'NONE', 'NONE',  #151 ) ;
#252 = DIRECTION ( 'NONE',  ( 0.0000000000000000000, 1.000000000000000000, 0.0000000000000000000 ) ) ;
#253 = AXIS2_PLACEMENT_3D ( 'NONE', #180, #70, #352 ) ;
#254 = ORIENTED_EDGE ( 'NONE', *, *, #92, .F. ) ;
#255 = VERTEX_POINT ( 'NONE', #126 ) ;
#256 = ADVANCED_FACE ( 'NONE', ( #182 ), #35, .T. ) ;
#257 = LOCAL_TIME ( 9, 26, 9.000000000000000000, #336 ) ;
#258 = VECTOR ( 'NONE', #98, 1000.000000000000000 ) ;
#259 = CLOSED_SHELL ( 'NONE', ( #256, #59, #202, #115, #172, #344 ) ) ;
#260 = AXIS2_PLACEMENT_3D ( 'NONE', #80, #222, #27 ) ;
#261 = ORIENTED_EDGE ( 'NONE', *, *, #168, .T. ) ;
#262 = CARTESIAN_POINT ( 'NONE',  ( 0.9999999999999972200, 10.00000000000000000, 0.0000000000000000000 ) ) ;
#263 = DIRECTION ( 'NONE',  ( 1.000000000000000000, 6.123233995736766000E-017, -0.0000000000000000000 ) ) ;
#264 = CALENDAR_DATE ( 2023, 31, 7 ) ;
#265 = CARTESIAN_POINT ( 'NONE',  ( 0.0000000000000000000, 0.0000000000000000000, 0.0000000000000000000 ) ) ;
#266 = APPROVAL ( #300, 'UNSPECIFIED' ) ;
#267 = CARTESIAN_POINT ( 'NONE',  ( 65.99999999999998600, 0.0000000000000000000, 9.199999999999999300 ) ) ;
#268 = VECTOR ( 'NONE', #43, 1000.000000000000000 ) ;
#269 = DIRECTION ( 'NONE',  ( 1.000000000000000000, 6.123233995736766000E-017, -0.0000000000000000000 ) ) ;
#270 = EDGE_CURVE ( 'NONE', #102, #93, #107, .T. ) ;
#271 = CARTESIAN_POINT ( 'NONE',  ( 0.0000000000000000000, 0.0000000000000000000, 0.0000000000000000000 ) ) ;
#272 =( NAMED_UNIT ( * ) SI_UNIT ( $, .STERADIAN. ) SOLID_ANGLE_UNIT ( ) );
#273 = ORGANIZATION ( 'UNSPECIFIED', 'UNSPECIFIED', '' ) ;
#274 = PERSON_AND_ORGANIZATION_ROLE ( 'creator' ) ;
#275 = VERTEX_POINT ( 'NONE', #209 ) ;
#276 = AXIS2_PLACEMENT_3D ( 'NONE', #265, #325, #293 ) ;
#277 = LINE ( 'NONE', #232, #54 ) ;
#278 = DIRECTION ( 'NONE',  ( -6.123233995736766000E-017, 1.000000000000000000, 0.0000000000000000000 ) ) ;
#279 = CARTESIAN_POINT ( 'NONE',  ( 65.99999999999998600, 0.0000000000000000000, 0.0000000000000000000 ) ) ;
#280 = DIRECTION ( 'NONE',  ( 0.0000000000000000000, -1.000000000000000000, 0.0000000000000000000 ) ) ;
#281 = AXIS2_PLACEMENT_3D ( 'NONE', #225, #57, #339 ) ;
#282 = ORIENTED_EDGE ( 'NONE', *, *, #212, .F. ) ;
#283 = CARTESIAN_POINT ( 'NONE',  ( 0.9999999999999997800, 0.0000000000000000000, 0.0000000000000000000 ) ) ;
#284 = DIRECTION ( 'NONE',  ( -1.000000000000000000, -0.0000000000000000000, -0.0000000000000000000 ) ) ;
#285 = CC_DESIGN_APPROVAL ( #266, ( #245 ) ) ;
#286 = LINE ( 'NONE', #106, #60 ) ;
#287 = ADVANCED_FACE ( 'NONE', ( #329 ), #318, .T. ) ;
#288 = EDGE_LOOP ( 'NONE', ( #205, #323, #175, #140 ) ) ;
#289 = EDGE_CURVE ( 'NONE', #297, #102, #26, .T. ) ;
#290 = ORIENTED_EDGE ( 'NONE', *, *, #307, .F. ) ;
#291 = DIRECTION ( 'NONE',  ( -1.000000000000000000, -0.0000000000000000000, -0.0000000000000000000 ) ) ;
#292 = CIRCLE ( 'NONE', #357, 9.199999999999999300 ) ;
#293 = DIRECTION ( 'NONE',  ( 0.0000000000000000000, 0.0000000000000000000, 1.000000000000000000 ) ) ;
#294 = COORDINATED_UNIVERSAL_TIME_OFFSET ( 9, 0, .AHEAD. ) ;
#295 = CARTESIAN_POINT ( 'NONE',  ( 66.00000000000000000, 9.955804296910383900E-014, 0.0000000000000000000 ) ) ;
#296 = DIRECTION ( 'NONE',  ( 1.000000000000000000, 6.123233995736766000E-017, -0.0000000000000000000 ) ) ;
#297 = VERTEX_POINT ( 'NONE', #328 ) ;
#298 = APPLICATION_PROTOCOL_DEFINITION ( 'international standard', 'config_control_design', 1994, #332 ) ;
#299 = AXIS2_PLACEMENT_3D ( 'NONE', #279, #109, #309 ) ;
#300 = APPROVAL_STATUS ( 'not_yet_approved' ) ;
#301 = TOROIDAL_SURFACE ( 'NONE', #340, 9.199999999999999300, 0.7999999999999917200 ) ;
#302 = ORIENTED_EDGE ( 'NONE', *, *, #347, .T. ) ;
#303 = DIRECTION ( 'NONE',  ( -1.000000000000000000, -0.0000000000000000000, -0.0000000000000000000 ) ) ;
#304 = CC_DESIGN_PERSON_AND_ORGANIZATION_ASSIGNMENT ( #237, #333, ( #245 ) ) ;
#305 = DIRECTION ( 'NONE',  ( 0.0000000000000000000, 0.0000000000000000000, 1.000000000000000000 ) ) ;
#306 = LOCAL_TIME ( 9, 26, 9.000000000000000000, #14 ) ;
#307 = EDGE_CURVE ( 'NONE', #177, #189, #174, .T. ) ;
#308 = VECTOR ( 'NONE', #296, 1000.000000000000000 ) ;
#309 = DIRECTION ( 'NONE',  ( 0.0000000000000000000, 0.0000000000000000000, 1.000000000000000000 ) ) ;
#310 = ORIENTED_EDGE ( 'NONE', *, *, #186, .F. ) ;
#311 = DIRECTION ( 'NONE',  ( 0.0000000000000000000, 0.0000000000000000000, 1.000000000000000000 ) ) ;
#312 = AXIS2_PLACEMENT_3D ( 'NONE', #16, #213, #45 ) ;
#313 = CIRCLE ( 'NONE', #320, 0.7999999999999917200 ) ;
#314 = ORIENTED_EDGE ( 'NONE', *, *, #168, .F. ) ;
#315 = ADVANCED_FACE ( 'NONE', ( #360 ), #72, .T. ) ;
#316 = APPROVAL_DATE_TIME ( #24, #266 ) ;
#317 = APPROVAL_PERSON_ORGANIZATION ( #25, #171, #78 ) ;
#318 = CONICAL_SURFACE ( 'NONE', #253, 9.999999999999994700, 0.7853981633974482800 ) ;
#319 = VERTEX_POINT ( 'NONE', #267 ) ;
#320 = AXIS2_PLACEMENT_3D ( 'NONE', #84, #280, #111 ) ;
#321 = DIRECTION ( 'NONE',  ( -1.000000000000000000, -0.0000000000000000000, -0.0000000000000000000 ) ) ;
#322 = PLANE ( 'NONE',  #218 ) ;
#323 = ORIENTED_EDGE ( 'NONE', *, *, #92, .T. ) ;
#324 = DIRECTION ( 'NONE',  ( 6.123233995736766000E-017, -1.000000000000000000, 0.0000000000000000000 ) ) ;
#325 = DIRECTION ( 'NONE',  ( -1.000000000000000000, -0.0000000000000000000, -0.0000000000000000000 ) ) ;
#326 = APPROVAL_PERSON_ORGANIZATION ( #32, #266, #132 ) ;
#327 = CC_DESIGN_PERSON_AND_ORGANIZATION_ASSIGNMENT ( #163, #159, ( #245 ) ) ;
#328 = CARTESIAN_POINT ( 'NONE',  ( -74.00000000000001400, 9.499999999999989300, 0.0000000000000000000 ) ) ;
#329 = FACE_OUTER_BOUND ( 'NONE', #240, .T. ) ;
#330 = EDGE_CURVE ( 'NONE', #189, #215, #165, .T. ) ;
#331 = ORIENTED_EDGE ( 'NONE', *, *, #212, .T. ) ;
#332 = APPLICATION_CONTEXT ( 'configuration controlled 3d designs of mechanical parts and assemblies' ) ;
#333 = PERSON_AND_ORGANIZATION_ROLE ( 'creator' ) ;
#334 = ORIENTED_EDGE ( 'NONE', *, *, #365, .T. ) ;
#335 = AXIS2_PLACEMENT_3D ( 'NONE', #211, #269, #100 ) ;
#336 = COORDINATED_UNIVERSAL_TIME_OFFSET ( 9, 0, .AHEAD. ) ;
#337 = LINE ( 'NONE', #178, #258 ) ;
#338 = ORIENTED_EDGE ( 'NONE', *, *, #37, .F. ) ;
#339 = DIRECTION ( 'NONE',  ( 0.0000000000000000000, 0.0000000000000000000, 1.000000000000000000 ) ) ;
#340 = AXIS2_PLACEMENT_3D ( 'NONE', #197, #29, #138 ) ;
#341 = DIRECTION ( 'NONE',  ( -1.000000000000000000, -0.0000000000000000000, -0.0000000000000000000 ) ) ;
#342 = ORIENTED_EDGE ( 'NONE', *, *, #330, .T. ) ;
#343 = LOCAL_TIME ( 9, 26, 9.000000000000000000, #51 ) ;
#344 = ADVANCED_FACE ( 'NONE', ( #101 ), #184, .F. ) ;
#345 = SECURITY_CLASSIFICATION ( '', '', #359 ) ;
#346 = FACE_OUTER_BOUND ( 'NONE', #18, .T. ) ;
#347 = EDGE_CURVE ( 'NONE', #177, #93, #91, .T. ) ;
#348 = ORIENTED_EDGE ( 'NONE', *, *, #330, .F. ) ;
#349 = PLANE ( 'NONE',  #142 ) ;
#350 = DIRECTION ( 'NONE',  ( 0.0000000000000000000, 0.0000000000000000000, 1.000000000000000000 ) ) ;
#351 = PERSON_AND_ORGANIZATION ( #244, #273 ) ;
#352 = DIRECTION ( 'NONE',  ( 0.0000000000000000000, 1.000000000000000000, 0.0000000000000000000 ) ) ;
#353 = FACE_OUTER_BOUND ( 'NONE', #358, .T. ) ;
#354 = CARTESIAN_POINT ( 'NONE',  ( -74.00000000000001400, -4.531193156845207600E-015, 0.0000000000000000000 ) ) ;
#355 = DIRECTION ( 'NONE',  ( 1.000000000000000000, 6.123233995736766000E-017, -0.0000000000000000000 ) ) ;
#356 = DIRECTION ( 'NONE',  ( 1.000000000000000000, 0.0000000000000000000, 0.0000000000000000000 ) ) ;
#357 = AXIS2_PLACEMENT_3D ( 'NONE', #220, #23, #162 ) ;
#358 = EDGE_LOOP ( 'NONE', ( #261, #97 ) ) ;
#359 = SECURITY_CLASSIFICATION_LEVEL ( 'unclassified' ) ;
#360 = FACE_OUTER_BOUND ( 'NONE', #36, .T. ) ;
#361 = ORIENTED_EDGE ( 'NONE', *, *, #75, .T. ) ;
#362 = CC_DESIGN_PERSON_AND_ORGANIZATION_ASSIGNMENT ( #89, #188, ( #345 ) ) ;
#363 = DIRECTION ( 'NONE',  ( -0.0000000000000000000, 1.000000000000000000, 1.224646799147353200E-016 ) ) ;
#364 = APPROVAL_DATE_TIME ( #73, #34 ) ;
#365 = EDGE_CURVE ( 'NONE', #93, #215, #238, .T. ) ;
ENDSEC;
END-ISO-10303-21;
