ISO-10303-21;
HEADER;
FILE_DESCRIPTION (( 'STEP AP214' ),
    '1' );
FILE_NAME ('K410100900.STEP',
    '2018-02-07T06:55:13',
    ( '' ),
    ( '' ),
    'SwSTEP 2.0',
    'SolidWorks 2014',
    '' );
FILE_SCHEMA (( 'AUTOMOTIVE_DESIGN' ));
ENDSEC;

DATA;
#1 = EDGE_CURVE ( 'NONE', #355, #132, #25, .T. ) ;
#2 =( LENGTH_UNIT ( ) NAMED_UNIT ( * ) SI_UNIT ( .MILLI., .METRE. ) );
#3 =( NAMED_UNIT ( * ) PLANE_ANGLE_UNIT ( ) SI_UNIT ( $, .RADIAN. ) );
#4 =( NAMED_UNIT ( * ) PLANE_ANGLE_UNIT ( ) SI_UNIT ( $, .RADIAN. ) );
#5 = EDGE_LOOP ( 'NONE', ( #347, #135, #188, #102 ) ) ;
#6 = EDGE_CURVE ( 'NONE', #327, #261, #270, .T. ) ;
#7 = ORIENTED_EDGE ( 'NONE', *, *, #252, .T. ) ;
#8 = AXIS2_PLACEMENT_3D ( 'NONE', #89, #183, #221 ) ;
#9 = MANIFOLD_SOLID_BREP ( '¸ðµû±â1', #153 ) ;
#10 = DIRECTION ( 'NONE',  ( 0.0000000000000000000, 0.0000000000000000000, -1.000000000000000000 ) ) ;
#11 = EDGE_LOOP ( 'NONE', ( #245, #113 ) ) ;
#12 = FILL_AREA_STYLE ('',( #168 ) ) ;
#13 = SURFACE_STYLE_USAGE ( .BOTH. , #79 ) ;
#14 = ORIENTED_EDGE ( 'NONE', *, *, #50, .T. ) ;
#15 = ORIENTED_EDGE ( 'NONE', *, *, #372, .T. ) ;
#16 = DIRECTION ( 'NONE',  ( 1.000000000000000000, 0.0000000000000000000, 0.0000000000000000000 ) ) ;
#17 = CARTESIAN_POINT ( 'NONE',  ( 89.00000000000000000, 0.0000000000000000000, 0.0000000000000000000 ) ) ;
#18 = CARTESIAN_POINT ( 'NONE',  ( 124.1900000000000100, 0.0000000000000000000, 0.0000000000000000000 ) ) ;
#19 = CONICAL_SURFACE ( 'NONE', #185, 4.500000000000002700, 0.7853981633974557200 ) ;
#20 = EDGE_LOOP ( 'NONE', ( #88, #250, #73, #202 ) ) ;
#21 = DIRECTION ( 'NONE',  ( 0.0000000000000000000, 0.0000000000000000000, 1.000000000000000000 ) ) ;
#22 = DIRECTION ( 'NONE',  ( -1.000000000000000000, -0.0000000000000000000, -0.0000000000000000000 ) ) ;
#23 = AXIS2_PLACEMENT_3D ( 'NONE', #326, #184, #384 ) ;
#24 = PRESENTATION_LAYER_ASSIGNMENT (  '', '', ( #367 ) ) ;
#25 = LINE ( 'NONE', #337, #392 ) ;
#26 = DIRECTION ( 'NONE',  ( -1.000000000000000000, -0.0000000000000000000, -0.0000000000000000000 ) ) ;
#27 = ORIENTED_EDGE ( 'NONE', *, *, #29, .T. ) ;
#28 = ADVANCED_FACE ( 'NONE', ( #258 ), #233, .F. ) ;
#29 = EDGE_CURVE ( 'NONE', #226, #327, #297, .T. ) ;
#30 = ADVANCED_FACE ( 'NONE', ( #248 ), #198, .T. ) ;
#31 = CARTESIAN_POINT ( 'NONE',  ( 44.09999999999998000, 0.0000000000000000000, 0.0000000000000000000 ) ) ;
#32 = PRESENTATION_LAYER_ASSIGNMENT (  '', '', ( #61 ) ) ;
#33 = VECTOR ( 'NONE', #175, 1000.000000000000000 ) ;
#34 = COLOUR_RGB ( '',0.5019607843137254800, 0.5019607843137254800, 0.5019607843137254800 ) ;
#35 = AXIS2_PLACEMENT_3D ( 'NONE', #17, #295, #141 ) ;
#36 = PRODUCT_CONTEXT ( 'NONE', #189, 'mechanical' ) ;
#37 = COLOUR_RGB ( '',0.7921568627450980000, 0.8196078431372548800, 0.9333333333333333500 ) ;
#38 = FILL_AREA_STYLE_COLOUR ( '', #37 ) ;
#39 = ORIENTED_EDGE ( 'NONE', *, *, #63, .F. ) ;
#40 = FILL_AREA_STYLE_COLOUR ( '', #104 ) ;
#41 = VERTEX_POINT ( 'NONE', #234 ) ;
#42 = FACE_OUTER_BOUND ( 'NONE', #5, .T. ) ;
#43 = VERTEX_POINT ( 'NONE', #203 ) ;
#44 = DIRECTION ( 'NONE',  ( -1.000000000000000000, -0.0000000000000000000, -0.0000000000000000000 ) ) ;
#45 = FACE_OUTER_BOUND ( 'NONE', #325, .T. ) ;
#46 = MECHANICAL_DESIGN_GEOMETRIC_PRESENTATION_REPRESENTATION (  '', ( #367 ), #70 ) ;
#47 = CARTESIAN_POINT ( 'NONE',  ( 124.1900000000000100, 0.0000000000000000000, 4.500000000000002700 ) ) ;
#48 = AXIS2_PLACEMENT_3D ( 'NONE', #167, #136, #170 ) ;
#49 = EDGE_CURVE ( 'NONE', #43, #307, #131, .T. ) ;
#50 = EDGE_CURVE ( 'NONE', #43, #355, #68, .T. ) ;
#51 = LINE ( 'NONE', #328, #57 ) ;
#52 = ORIENTED_EDGE ( 'NONE', *, *, #301, .F. ) ;
#53 = CARTESIAN_POINT ( 'NONE',  ( 44.09999999999998000, 0.0000000000000000000, 5.000000000000005300 ) ) ;
#54 = DIRECTION ( 'NONE',  ( 0.0000000000000000000, 0.0000000000000000000, 1.000000000000000000 ) ) ;
#55 = UNCERTAINTY_MEASURE_WITH_UNIT (LENGTH_MEASURE( 1.000000000000000100E-005 ), #2, 'distance_accuracy_value', 'NONE');
#56 = PLANE ( 'NONE',  #115 ) ;
#57 = VECTOR ( 'NONE', #62, 999.9999999999998900 ) ;
#58 = ORIENTED_EDGE ( 'NONE', *, *, #50, .F. ) ;
#59 = ORIENTED_EDGE ( 'NONE', *, *, #29, .F. ) ;
#60 = DIRECTION ( 'NONE',  ( 0.0000000000000000000, 0.0000000000000000000, 1.000000000000000000 ) ) ;
#61 = STYLED_ITEM ( 'NONE', ( #213 ), #9 ) ;
#62 = DIRECTION ( 'NONE',  ( -0.7071067811865421300, 8.659560562354999400E-017, -0.7071067811865530100 ) ) ;
#63 = EDGE_CURVE ( 'NONE', #350, #226, #364, .T. ) ;
#64 = CARTESIAN_POINT ( 'NONE',  ( 124.1900000000000100, 0.0000000000000000000, 4.500000000000002700 ) ) ;
#65 = ORIENTED_EDGE ( 'NONE', *, *, #137, .F. ) ;
#66 =( LENGTH_UNIT ( ) NAMED_UNIT ( * ) SI_UNIT ( .MILLI., .METRE. ) );
#67 = CIRCLE ( 'NONE', #227, 4.500000000000000000 ) ;
#68 = CIRCLE ( 'NONE', #282, 4.099999999999999600 ) ;
#69 = DIRECTION ( 'NONE',  ( 1.000000000000000000, 0.0000000000000000000, 0.0000000000000000000 ) ) ;
#70 =( GEOMETRIC_REPRESENTATION_CONTEXT ( 3 ) GLOBAL_UNCERTAINTY_ASSIGNED_CONTEXT ( ( #186 ) ) GLOBAL_UNIT_ASSIGNED_CONTEXT ( ( #366, #230, #80 ) ) REPRESENTATION_CONTEXT ( 'NONE', 'WORKASPACE' ) );
#71 = FILL_AREA_STYLE ('',( #38 ) ) ;
#72 = FACE_OUTER_BOUND ( 'NONE', #256, .T. ) ;
#73 = ORIENTED_EDGE ( 'NONE', *, *, #352, .T. ) ;
#74 = MANIFOLD_SOLID_BREP ( '¹Ùµð', #144 ) ;
#75 = EDGE_CURVE ( 'NONE', #261, #93, #279, .T. ) ;
#76 = PRODUCT_DEFINITION_FORMATION_WITH_SPECIFIED_SOURCE ( 'ANY', '', #210, .NOT_KNOWN. ) ;
#77 = FACE_OUTER_BOUND ( 'NONE', #11, .T. ) ;
#78 = ORIENTED_EDGE ( 'NONE', *, *, #181, .T. ) ;
#79 = SURFACE_SIDE_STYLE ('',( #159 ) ) ;
#80 =( NAMED_UNIT ( * ) SI_UNIT ( $, .STERADIAN. ) SOLID_ANGLE_UNIT ( ) );
#81 = CIRCLE ( 'NONE', #169, 4.500000000000000000 ) ;
#82 = ORIENTED_EDGE ( 'NONE', *, *, #1, .F. ) ;
#83 = EDGE_CURVE ( 'NONE', #361, #43, #363, .T. ) ;
#84 = AXIS2_PLACEMENT_3D ( 'NONE', #31, #243, #219 ) ;
#85 = CYLINDRICAL_SURFACE ( 'NONE', #320, 4.099999999999999600 ) ;
#86 = ORIENTED_EDGE ( 'NONE', *, *, #276, .F. ) ;
#87 = DIRECTION ( 'NONE',  ( -1.000000000000000000, -0.0000000000000000000, -0.0000000000000000000 ) ) ;
#88 = ORIENTED_EDGE ( 'NONE', *, *, #96, .F. ) ;
#89 = CARTESIAN_POINT ( 'NONE',  ( 45.00000000000000000, 0.0000000000000000000, 0.0000000000000000000 ) ) ;
#90 = AXIS2_PLACEMENT_3D ( 'NONE', #18, #119, #54 ) ;
#91 = AXIS2_PLACEMENT_3D ( 'NONE', #206, #265, #294 ) ;
#92 = CARTESIAN_POINT ( 'NONE',  ( 89.00000000000000000, 0.0000000000000000000, 0.0000000000000000000 ) ) ;
#93 = VERTEX_POINT ( 'NONE', #118 ) ;
#94 = VERTEX_POINT ( 'NONE', #200 ) ;
#95 = CARTESIAN_POINT ( 'NONE',  ( 125.0000000000000000, 0.0000000000000000000, 0.0000000000000000000 ) ) ;
#96 = EDGE_CURVE ( 'NONE', #307, #223, #353, .T. ) ;
#97 = CARTESIAN_POINT ( 'NONE',  ( 44.09999999999998000, 6.123233995736772200E-016, -5.000000000000005300 ) ) ;
#98 = SURFACE_STYLE_USAGE ( .BOTH. , #193 ) ;
#99 = EDGE_CURVE ( 'NONE', #261, #327, #107, .T. ) ;
#100 = CIRCLE ( 'NONE', #284, 3.689999999999998600 ) ;
#101 =( GEOMETRIC_REPRESENTATION_CONTEXT ( 3 ) GLOBAL_UNCERTAINTY_ASSIGNED_CONTEXT ( ( #55 ) ) GLOBAL_UNIT_ASSIGNED_CONTEXT ( ( #2, #3, #156 ) ) REPRESENTATION_CONTEXT ( 'NONE', 'WORKASPACE' ) );
#102 = ORIENTED_EDGE ( 'NONE', *, *, #281, .F. ) ;
#103 = ADVANCED_FACE ( 'NONE', ( #45 ), #85, .T. ) ;
#104 = COLOUR_RGB ( '',1.000000000000000000, 1.000000000000000000, 0.0000000000000000000 ) ;
#105 = ORIENTED_EDGE ( 'NONE', *, *, #83, .F. ) ;
#106 = AXIS2_PLACEMENT_3D ( 'NONE', #308, #191, #69 ) ;
#107 = CIRCLE ( 'NONE', #90, 4.500000000000002700 ) ;
#108 = DIRECTION ( 'NONE',  ( 0.0000000000000000000, 0.0000000000000000000, 1.000000000000000000 ) ) ;
#109 = VECTOR ( 'NONE', #114, 1000.000000000000000 ) ;
#110 = SURFACE_STYLE_USAGE ( .BOTH. , #344 ) ;
#111 = AXIS2_PLACEMENT_3D ( 'NONE', #313, #171, #10 ) ;
#112 = ORIENTED_EDGE ( 'NONE', *, *, #99, .T. ) ;
#113 = ORIENTED_EDGE ( 'NONE', *, *, #63, .T. ) ;
#114 = DIRECTION ( 'NONE',  ( -0.7071067811865526800, 8.659560562354870000E-017, -0.7071067811865423500 ) ) ;
#115 = AXIS2_PLACEMENT_3D ( 'NONE', #323, #143, #238 ) ;
#116 = CARTESIAN_POINT ( 'NONE',  ( 125.0000000000000000, 0.0000000000000000000, 3.689999999999998600 ) ) ;
#117 = DIRECTION ( 'NONE',  ( -1.000000000000000000, 0.0000000000000000000, -0.0000000000000000000 ) ) ;
#118 = CARTESIAN_POINT ( 'NONE',  ( 89.00000000000000000, 5.510910596163091500E-016, -4.500000000000000000 ) ) ;
#119 = DIRECTION ( 'NONE',  ( -1.000000000000000000, -0.0000000000000000000, -0.0000000000000000000 ) ) ;
#120 = DIRECTION ( 'NONE',  ( -1.000000000000000000, -0.0000000000000000000, -0.0000000000000000000 ) ) ;
#121 = SURFACE_STYLE_FILL_AREA ( #71 ) ;
#122 = VERTEX_POINT ( 'NONE', #212 ) ;
#123 = CARTESIAN_POINT ( 'NONE',  ( 89.00000000000000000, 0.0000000000000000000, 0.0000000000000000000 ) ) ;
#124 = ORIENTED_EDGE ( 'NONE', *, *, #370, .T. ) ;
#125 = DIRECTION ( 'NONE',  ( -1.000000000000000000, -0.0000000000000000000, -0.0000000000000000000 ) ) ;
#126 = MECHANICAL_DESIGN_GEOMETRIC_PRESENTATION_REPRESENTATION (  '', ( #61 ), #225 ) ;
#127 = CARTESIAN_POINT ( 'NONE',  ( 125.0000000000000000, 5.014928642508410500E-016, -3.689999999999998600 ) ) ;
#128 = FACE_OUTER_BOUND ( 'NONE', #173, .T. ) ;
#129 = ORIENTED_EDGE ( 'NONE', *, *, #6, .F. ) ;
#130 = AXIS2_PLACEMENT_3D ( 'NONE', #149, #273, #351 ) ;
#131 = LINE ( 'NONE', #199, #109 ) ;
#132 = VERTEX_POINT ( 'NONE', #53 ) ;
#133 = CIRCLE ( 'NONE', #317, 5.000000000000005300 ) ;
#134 =( NAMED_UNIT ( * ) PLANE_ANGLE_UNIT ( ) SI_UNIT ( $, .RADIAN. ) );
#135 = ORIENTED_EDGE ( 'NONE', *, *, #75, .T. ) ;
#136 = DIRECTION ( 'NONE',  ( 1.000000000000000000, 0.0000000000000000000, 0.0000000000000000000 ) ) ;
#137 = EDGE_CURVE ( 'NONE', #226, #350, #100, .T. ) ;
#138 = CARTESIAN_POINT ( 'NONE',  ( 124.1900000000000100, 0.0000000000000000000, 0.0000000000000000000 ) ) ;
#139 = CYLINDRICAL_SURFACE ( 'NONE', #349, 5.000000000000002700 ) ;
#140 = ORIENTED_EDGE ( 'NONE', *, *, #251, .F. ) ;
#141 = DIRECTION ( 'NONE',  ( 0.0000000000000000000, 0.0000000000000000000, 1.000000000000000000 ) ) ;
#142 = DIRECTION ( 'NONE',  ( -0.0000000000000000000, 0.0000000000000000000, 1.000000000000000000 ) ) ;
#143 = DIRECTION ( 'NONE',  ( 1.000000000000000000, 0.0000000000000000000, 0.0000000000000000000 ) ) ;
#144 = CLOSED_SHELL ( 'NONE', ( #30, #274, #383, #190, #249, #103, #155, #386 ) ) ;
#145 = DIRECTION ( 'NONE',  ( -1.000000000000000000, -0.0000000000000000000, -0.0000000000000000000 ) ) ;
#146 = PRODUCT_RELATED_PRODUCT_CATEGORY ( 'part', '', ( #210 ) ) ;
#147 = DIRECTION ( 'NONE',  ( 0.0000000000000000000, 0.0000000000000000000, 1.000000000000000000 ) ) ;
#148 = EDGE_CURVE ( 'NONE', #41, #223, #150, .T. ) ;
#149 = CARTESIAN_POINT ( 'NONE',  ( 89.00000000000000000, 0.0000000000000000000, 0.0000000000000000000 ) ) ;
#150 = CIRCLE ( 'NONE', #381, 5.000000000000000000 ) ;
#151 = ADVANCED_FACE ( 'NONE', ( #229 ), #165, .T. ) ;
#152 = DIRECTION ( 'NONE',  ( -1.000000000000000000, -0.0000000000000000000, -0.0000000000000000000 ) ) ;
#153 = CLOSED_SHELL ( 'NONE', ( #182, #306, #28, #330, #151, #253 ) ) ;
#154 = APPLICATION_CONTEXT ( 'automotive_design' ) ;
#155 = ADVANCED_FACE ( 'NONE', ( #324 ), #378, .T. ) ;
#156 =( NAMED_UNIT ( * ) SI_UNIT ( $, .STERADIAN. ) SOLID_ANGLE_UNIT ( ) );
#157 = PRODUCT_DEFINITION ( 'UNKNOWN', '', #76, #288 ) ;
#158 = FACE_OUTER_BOUND ( 'NONE', #20, .T. ) ;
#159 = SURFACE_STYLE_FILL_AREA ( #260 ) ;
#160 = APPLICATION_PROTOCOL_DEFINITION ( 'draft international standard', 'automotive_design', 1998, #189 ) ;
#161 = ORIENTED_EDGE ( 'NONE', *, *, #96, .T. ) ;
#162 = DIRECTION ( 'NONE',  ( 0.0000000000000000000, 0.0000000000000000000, 1.000000000000000000 ) ) ;
#163 = CYLINDRICAL_SURFACE ( 'NONE', #130, 4.500000000000002700 ) ;
#164 = ORIENTED_EDGE ( 'NONE', *, *, #278, .F. ) ;
#165 = CYLINDRICAL_SURFACE ( 'NONE', #35, 4.500000000000002700 ) ;
#166 = ORIENTED_EDGE ( 'NONE', *, *, #301, .T. ) ;
#167 = CARTESIAN_POINT ( 'NONE',  ( 125.0000000000000000, 0.0000000000000000000, 0.0000000000000000000 ) ) ;
#168 = FILL_AREA_STYLE_COLOUR ( '', #34 ) ;
#169 = AXIS2_PLACEMENT_3D ( 'NONE', #92, #382, #300 ) ;
#170 = DIRECTION ( 'NONE',  ( 0.0000000000000000000, 0.0000000000000000000, 1.000000000000000000 ) ) ;
#171 = DIRECTION ( 'NONE',  ( 1.000000000000000000, 0.0000000000000000000, 0.0000000000000000000 ) ) ;
#172 = ORIENTED_EDGE ( 'NONE', *, *, #49, .F. ) ;
#173 = EDGE_LOOP ( 'NONE', ( #39, #312, #129, #59 ) ) ;
#174 = PLANE ( 'NONE',  #343 ) ;
#175 = DIRECTION ( 'NONE',  ( -1.000000000000000000, -0.0000000000000000000, -0.0000000000000000000 ) ) ;
#176 = DIRECTION ( 'NONE',  ( -1.000000000000000000, -0.0000000000000000000, -0.0000000000000000000 ) ) ;
#177 = SURFACE_STYLE_FILL_AREA ( #12 ) ;
#178 = CARTESIAN_POINT ( 'NONE',  ( 0.0000000000000000000, 0.0000000000000000000, 0.0000000000000000000 ) ) ;
#179 = DIRECTION ( 'NONE',  ( 0.0000000000000000000, 0.0000000000000000000, 1.000000000000000000 ) ) ;
#180 = CARTESIAN_POINT ( 'NONE',  ( 89.00000000000000000, 0.0000000000000000000, 0.0000000000000000000 ) ) ;
#181 = EDGE_CURVE ( 'NONE', #122, #355, #207, .T. ) ;
#182 = ADVANCED_FACE ( 'NONE', ( #128 ), #277, .T. ) ;
#183 = DIRECTION ( 'NONE',  ( -1.000000000000000000, -0.0000000000000000000, -0.0000000000000000000 ) ) ;
#184 = DIRECTION ( 'NONE',  ( -1.000000000000000000, -0.0000000000000000000, -0.0000000000000000000 ) ) ;
#185 = AXIS2_PLACEMENT_3D ( 'NONE', #209, #373, #237 ) ;
#186 = UNCERTAINTY_MEASURE_WITH_UNIT (LENGTH_MEASURE( 1.000000000000000100E-005 ), #366, 'distance_accuracy_value', 'NONE');
#187 = CIRCLE ( 'NONE', #8, 4.099999999999999600 ) ;
#188 = ORIENTED_EDGE ( 'NONE', *, *, #370, .F. ) ;
#189 = APPLICATION_CONTEXT ( 'automotive_design' ) ;
#190 = ADVANCED_FACE ( 'NONE', ( #220 ), #56, .F. ) ;
#191 = DIRECTION ( 'NONE',  ( 0.0000000000000000000, 0.0000000000000000000, 1.000000000000000000 ) ) ;
#192 = ORIENTED_EDGE ( 'NONE', *, *, #83, .T. ) ;
#193 = SURFACE_SIDE_STYLE ('',( #121 ) ) ;
#194 = ORIENTED_EDGE ( 'NONE', *, *, #252, .F. ) ;
#195 = UNCERTAINTY_MEASURE_WITH_UNIT (LENGTH_MEASURE( 1.000000000000000100E-005 ), #66, 'distance_accuracy_value', 'NONE');
#196 = AXIS2_PLACEMENT_3D ( 'NONE', #138, #338, #283 ) ;
#197 = VECTOR ( 'NONE', #125, 1000.000000000000000 ) ;
#198 = CYLINDRICAL_SURFACE ( 'NONE', #371, 5.000000000000002700 ) ;
#199 = CARTESIAN_POINT ( 'NONE',  ( 45.00000000000000000, 5.021051876504147400E-016, -4.099999999999999600 ) ) ;
#200 = CARTESIAN_POINT ( 'NONE',  ( 89.00000000000000000, 0.0000000000000000000, 4.500000000000000000 ) ) ;
#201 = PRESENTATION_STYLE_ASSIGNMENT (( #98 ) ) ;
#202 = ORIENTED_EDGE ( 'NONE', *, *, #262, .F. ) ;
#203 = CARTESIAN_POINT ( 'NONE',  ( 45.00000000000000000, 5.021051876504147400E-016, -4.099999999999999600 ) ) ;
#204 =( LENGTH_UNIT ( ) NAMED_UNIT ( * ) SI_UNIT ( .MILLI., .METRE. ) );
#205 = CARTESIAN_POINT ( 'NONE',  ( 89.00000000000000000, 4.099999999999999600, 0.0000000000000000000 ) ) ;
#206 = CARTESIAN_POINT ( 'NONE',  ( 124.1900000000000100, 0.0000000000000000000, 0.0000000000000000000 ) ) ;
#207 = LINE ( 'NONE', #292, #293 ) ;
#208 = AXIS2_PLACEMENT_3D ( 'NONE', #123, #218, #60 ) ;
#209 = CARTESIAN_POINT ( 'NONE',  ( 124.1900000000000100, 0.0000000000000000000, 0.0000000000000000000 ) ) ;
#210 = PRODUCT ( 'K410100900', 'K410100900', '', ( #36 ) ) ;
#211 = DIRECTION ( 'NONE',  ( 0.0000000000000000000, 0.0000000000000000000, 1.000000000000000000 ) ) ;
#212 = CARTESIAN_POINT ( 'NONE',  ( 89.00000000000000000, 0.0000000000000000000, 4.099999999999999600 ) ) ;
#213 = PRESENTATION_STYLE_ASSIGNMENT (( #13 ) ) ;
#214 = DIRECTION ( 'NONE',  ( 0.0000000000000000000, 0.0000000000000000000, 1.000000000000000000 ) ) ;
#215 = EDGE_LOOP ( 'NONE', ( #315, #65, #27, #304 ) ) ;
#216 = STYLED_ITEM ( 'NONE', ( #201 ), #303 ) ;
#217 = DIRECTION ( 'NONE',  ( -0.0000000000000000000, 0.0000000000000000000, 1.000000000000000000 ) ) ;
#218 = DIRECTION ( 'NONE',  ( -1.000000000000000000, -0.0000000000000000000, -0.0000000000000000000 ) ) ;
#219 = DIRECTION ( 'NONE',  ( 0.0000000000000000000, 0.0000000000000000000, 1.000000000000000000 ) ) ;
#220 = FACE_OUTER_BOUND ( 'NONE', #329, .T. ) ;
#221 = DIRECTION ( 'NONE',  ( 0.0000000000000000000, 0.0000000000000000000, 1.000000000000000000 ) ) ;
#222 = ORIENTED_EDGE ( 'NONE', *, *, #148, .F. ) ;
#223 = VERTEX_POINT ( 'NONE', #345 ) ;
#224 = APPLICATION_PROTOCOL_DEFINITION ( 'draft international standard', 'automotive_design', 1998, #154 ) ;
#225 =( GEOMETRIC_REPRESENTATION_CONTEXT ( 3 ) GLOBAL_UNCERTAINTY_ASSIGNED_CONTEXT ( ( #362 ) ) GLOBAL_UNIT_ASSIGNED_CONTEXT ( ( #204, #134, #289 ) ) REPRESENTATION_CONTEXT ( 'NONE', 'WORKASPACE' ) );
#226 = VERTEX_POINT ( 'NONE', #116 ) ;
#227 = AXIS2_PLACEMENT_3D ( 'NONE', #180, #380, #214 ) ;
#228 = DIRECTION ( 'NONE',  ( -1.000000000000000000, -0.0000000000000000000, -0.0000000000000000000 ) ) ;
#229 = FACE_OUTER_BOUND ( 'NONE', #316, .T. ) ;
#230 =( NAMED_UNIT ( * ) PLANE_ANGLE_UNIT ( ) SI_UNIT ( $, .RADIAN. ) );
#231 = ORIENTED_EDGE ( 'NONE', *, *, #1, .T. ) ;
#232 = PRESENTATION_LAYER_ASSIGNMENT (  '', '', ( #216 ) ) ;
#233 = PLANE ( 'NONE',  #111 ) ;
#234 = CARTESIAN_POINT ( 'NONE',  ( 0.0000000000000000000, 0.0000000000000000000, 5.000000000000000000 ) ) ;
#235 = CONICAL_SURFACE ( 'NONE', #23, 4.099999999999999600, 0.7853981633974410600 ) ;
#236 = ORIENTED_EDGE ( 'NONE', *, *, #262, .T. ) ;
#237 = DIRECTION ( 'NONE',  ( 0.0000000000000000000, 0.0000000000000000000, 1.000000000000000000 ) ) ;
#238 = DIRECTION ( 'NONE',  ( 0.0000000000000000000, 0.0000000000000000000, -1.000000000000000000 ) ) ;
#239 = CARTESIAN_POINT ( 'NONE',  ( 0.0000000000000000000, 0.0000000000000000000, 0.0000000000000000000 ) ) ;
#240 = CIRCLE ( 'NONE', #84, 5.000000000000005300 ) ;
#241 = ORIENTED_EDGE ( 'NONE', *, *, #276, .T. ) ;
#242 = CARTESIAN_POINT ( 'NONE',  ( 125.0000000000000000, 0.0000000000000000000, 0.0000000000000000000 ) ) ;
#243 = DIRECTION ( 'NONE',  ( -1.000000000000000000, -0.0000000000000000000, -0.0000000000000000000 ) ) ;
#244 = FACE_OUTER_BOUND ( 'NONE', #271, .T. ) ;
#245 = ORIENTED_EDGE ( 'NONE', *, *, #137, .T. ) ;
#246 = CARTESIAN_POINT ( 'NONE',  ( 0.0000000000000000000, 0.0000000000000000000, 5.000000000000002700 ) ) ;
#247 = FACE_OUTER_BOUND ( 'NONE', #257, .T. ) ;
#248 = FACE_OUTER_BOUND ( 'NONE', #319, .T. ) ;
#249 = ADVANCED_FACE ( 'NONE', ( #244 ), #174, .F. ) ;
#250 = ORIENTED_EDGE ( 'NONE', *, *, #278, .T. ) ;
#251 = EDGE_CURVE ( 'NONE', #132, #307, #133, .T. ) ;
#252 = EDGE_CURVE ( 'NONE', #122, #361, #358, .T. ) ;
#253 = ADVANCED_FACE ( 'NONE', ( #360 ), #19, .T. ) ;
#254 = DIRECTION ( 'NONE',  ( -1.000000000000000000, -0.0000000000000000000, -0.0000000000000000000 ) ) ;
#255 = AXIS2_PLACEMENT_3D ( 'NONE', #268, #26, #302 ) ;
#256 = EDGE_LOOP ( 'NONE', ( #7, #192, #335, #334 ) ) ;
#257 = EDGE_LOOP ( 'NONE', ( #15, #286, #140, #82 ) ) ;
#258 = FACE_OUTER_BOUND ( 'NONE', #365, .T. ) ;
#259 = DIRECTION ( 'NONE',  ( -0.7071067811865526800, 0.0000000000000000000, 0.7071067811865423500 ) ) ;
#260 = FILL_AREA_STYLE ('',( #40 ) ) ;
#261 = VERTEX_POINT ( 'NONE', #272 ) ;
#262 = EDGE_CURVE ( 'NONE', #223, #41, #305, .T. ) ;
#263 = DIRECTION ( 'NONE',  ( -1.000000000000000000, -0.0000000000000000000, -0.0000000000000000000 ) ) ;
#264 = CARTESIAN_POINT ( 'NONE',  ( 44.09999999999998000, 0.0000000000000000000, 0.0000000000000000000 ) ) ;
#265 = DIRECTION ( 'NONE',  ( -1.000000000000000000, -0.0000000000000000000, -0.0000000000000000000 ) ) ;
#266 = VECTOR ( 'NONE', #285, 999.9999999999998900 ) ;
#267 = CARTESIAN_POINT ( 'NONE',  ( 89.00000000000000000, 0.0000000000000000000, 0.0000000000000000000 ) ) ;
#268 = CARTESIAN_POINT ( 'NONE',  ( 0.0000000000000000000, 0.0000000000000000000, 0.0000000000000000000 ) ) ;
#269 = DIRECTION ( 'NONE',  ( 0.0000000000000000000, 0.0000000000000000000, 1.000000000000000000 ) ) ;
#270 = CIRCLE ( 'NONE', #196, 4.500000000000002700 ) ;
#271 = EDGE_LOOP ( 'NONE', ( #194, #52 ) ) ;
#272 = CARTESIAN_POINT ( 'NONE',  ( 124.1900000000000100, 5.510910596163092500E-016, -4.500000000000002700 ) ) ;
#273 = DIRECTION ( 'NONE',  ( -1.000000000000000000, -0.0000000000000000000, -0.0000000000000000000 ) ) ;
#274 = ADVANCED_FACE ( 'NONE', ( #247 ), #235, .T. ) ;
#275 = VECTOR ( 'NONE', #263, 1000.000000000000000 ) ;
#276 = EDGE_CURVE ( 'NONE', #93, #94, #81, .T. ) ;
#277 = CONICAL_SURFACE ( 'NONE', #91, 4.500000000000002700, 0.7853981633974557200 ) ;
#278 = EDGE_CURVE ( 'NONE', #307, #132, #240, .T. ) ;
#279 = LINE ( 'NONE', #369, #385 ) ;
#280 = CARTESIAN_POINT ( 'NONE',  ( 0.0000000000000000000, 0.0000000000000000000, 0.0000000000000000000 ) ) ;
#281 = EDGE_CURVE ( 'NONE', #327, #94, #391, .T. ) ;
#282 = AXIS2_PLACEMENT_3D ( 'NONE', #340, #228, #108 ) ;
#283 = DIRECTION ( 'NONE',  ( 0.0000000000000000000, 0.0000000000000000000, 1.000000000000000000 ) ) ;
#284 = AXIS2_PLACEMENT_3D ( 'NONE', #242, #16, #21 ) ;
#285 = DIRECTION ( 'NONE',  ( -0.7071067811865421300, 0.0000000000000000000, 0.7071067811865530100 ) ) ;
#286 = ORIENTED_EDGE ( 'NONE', *, *, #49, .T. ) ;
#287 = ORIENTED_EDGE ( 'NONE', *, *, #352, .F. ) ;
#288 = PRODUCT_DEFINITION_CONTEXT ( 'detailed design', #154, 'design' ) ;
#289 =( NAMED_UNIT ( * ) SI_UNIT ( $, .STERADIAN. ) SOLID_ANGLE_UNIT ( ) );
#290 = AXIS2_PLACEMENT_3D ( 'NONE', #95, #389, #217 ) ;
#291 = CARTESIAN_POINT ( 'NONE',  ( 0.0000000000000000000, 5.021051876504147400E-016, -4.099999999999999600 ) ) ;
#292 = CARTESIAN_POINT ( 'NONE',  ( 0.0000000000000000000, 0.0000000000000000000, 4.099999999999999600 ) ) ;
#293 = VECTOR ( 'NONE', #22, 1000.000000000000000 ) ;
#294 = DIRECTION ( 'NONE',  ( 0.0000000000000000000, 0.0000000000000000000, 1.000000000000000000 ) ) ;
#295 = DIRECTION ( 'NONE',  ( -1.000000000000000000, -0.0000000000000000000, -0.0000000000000000000 ) ) ;
#296 =( GEOMETRIC_REPRESENTATION_CONTEXT ( 3 ) GLOBAL_UNCERTAINTY_ASSIGNED_CONTEXT ( ( #195 ) ) GLOBAL_UNIT_ASSIGNED_CONTEXT ( ( #66, #4, #390 ) ) REPRESENTATION_CONTEXT ( 'NONE', 'WORKASPACE' ) );
#297 = LINE ( 'NONE', #47, #266 ) ;
#298 = EDGE_LOOP ( 'NONE', ( #172, #14, #231, #164 ) ) ;
#299 = CARTESIAN_POINT ( 'NONE',  ( 89.00000000000000000, 0.0000000000000000000, 4.500000000000002700 ) ) ;
#300 = DIRECTION ( 'NONE',  ( 0.0000000000000000000, 0.0000000000000000000, 1.000000000000000000 ) ) ;
#301 = EDGE_CURVE ( 'NONE', #361, #122, #333, .T. ) ;
#302 = DIRECTION ( 'NONE',  ( 0.0000000000000000000, 0.0000000000000000000, 1.000000000000000000 ) ) ;
#303 = ADVANCED_BREP_SHAPE_REPRESENTATION ( 'K410100900', ( #74, #9, #106 ), #101 ) ;
#304 = ORIENTED_EDGE ( 'NONE', *, *, #99, .F. ) ;
#305 = CIRCLE ( 'NONE', #255, 5.000000000000000000 ) ;
#306 = ADVANCED_FACE ( 'NONE', ( #42 ), #163, .T. ) ;
#307 = VERTEX_POINT ( 'NONE', #97 ) ;
#308 = CARTESIAN_POINT ( 'NONE',  ( 0.0000000000000000000, 0.0000000000000000000, 0.0000000000000000000 ) ) ;
#309 = CARTESIAN_POINT ( 'NONE',  ( 0.0000000000000000000, 0.0000000000000000000, 0.0000000000000000000 ) ) ;
#310 = AXIS2_PLACEMENT_3D ( 'NONE', #387, #145, #269 ) ;
#311 = LINE ( 'NONE', #246, #336 ) ;
#312 = ORIENTED_EDGE ( 'NONE', *, *, #322, .T. ) ;
#313 = CARTESIAN_POINT ( 'NONE',  ( 89.00000000000000000, 4.500000000000000000, 0.0000000000000000000 ) ) ;
#314 = CYLINDRICAL_SURFACE ( 'NONE', #310, 4.099999999999999600 ) ;
#315 = ORIENTED_EDGE ( 'NONE', *, *, #322, .F. ) ;
#316 = EDGE_LOOP ( 'NONE', ( #393, #112, #342, #86 ) ) ;
#317 = AXIS2_PLACEMENT_3D ( 'NONE', #264, #176, #376 ) ;
#318 = DIRECTION ( 'NONE',  ( 0.0000000000000000000, 0.0000000000000000000, 1.000000000000000000 ) ) ;
#319 = EDGE_LOOP ( 'NONE', ( #379, #161, #222, #287 ) ) ;
#320 = AXIS2_PLACEMENT_3D ( 'NONE', #239, #375, #179 ) ;
#321 = CARTESIAN_POINT ( 'NONE',  ( 45.00000000000000000, 0.0000000000000000000, 0.0000000000000000000 ) ) ;
#322 = EDGE_CURVE ( 'NONE', #350, #261, #51, .T. ) ;
#323 = CARTESIAN_POINT ( 'NONE',  ( 0.0000000000000000000, 5.000000000000000000, 0.0000000000000000000 ) ) ;
#324 = FACE_OUTER_BOUND ( 'NONE', #298, .T. ) ;
#325 = EDGE_LOOP ( 'NONE', ( #105, #166, #78, #58 ) ) ;
#326 = CARTESIAN_POINT ( 'NONE',  ( 45.00000000000000000, 0.0000000000000000000, 0.0000000000000000000 ) ) ;
#327 = VERTEX_POINT ( 'NONE', #64 ) ;
#328 = CARTESIAN_POINT ( 'NONE',  ( 124.1900000000000100, 5.510910596163090500E-016, -4.500000000000002700 ) ) ;
#329 = EDGE_LOOP ( 'NONE', ( #341, #236 ) ) ;
#330 = ADVANCED_FACE ( 'NONE', ( #77 ), #332, .F. ) ;
#331 = CARTESIAN_POINT ( 'NONE',  ( 89.00000000000000000, 5.021051876504147400E-016, -4.099999999999999600 ) ) ;
#332 = PLANE ( 'NONE',  #290 ) ;
#333 = CIRCLE ( 'NONE', #208, 4.099999999999999600 ) ;
#334 = ORIENTED_EDGE ( 'NONE', *, *, #181, .F. ) ;
#335 = ORIENTED_EDGE ( 'NONE', *, *, #372, .F. ) ;
#336 = VECTOR ( 'NONE', #152, 1000.000000000000000 ) ;
#337 = CARTESIAN_POINT ( 'NONE',  ( 45.00000000000000000, 0.0000000000000000000, 4.099999999999999600 ) ) ;
#338 = DIRECTION ( 'NONE',  ( -1.000000000000000000, -0.0000000000000000000, -0.0000000000000000000 ) ) ;
#339 = DIRECTION ( 'NONE',  ( -1.000000000000000000, -0.0000000000000000000, -0.0000000000000000000 ) ) ;
#340 = CARTESIAN_POINT ( 'NONE',  ( 45.00000000000000000, 0.0000000000000000000, 0.0000000000000000000 ) ) ;
#341 = ORIENTED_EDGE ( 'NONE', *, *, #148, .T. ) ;
#342 = ORIENTED_EDGE ( 'NONE', *, *, #281, .T. ) ;
#343 = AXIS2_PLACEMENT_3D ( 'NONE', #205, #117, #142 ) ;
#344 = SURFACE_SIDE_STYLE ('',( #177 ) ) ;
#345 = CARTESIAN_POINT ( 'NONE',  ( 0.0000000000000000000, 6.123233995736769200E-016, -5.000000000000000000 ) ) ;
#346 = DIRECTION ( 'NONE',  ( 0.0000000000000000000, 0.0000000000000000000, 1.000000000000000000 ) ) ;
#347 = ORIENTED_EDGE ( 'NONE', *, *, #6, .T. ) ;
#348 = DIRECTION ( 'NONE',  ( -1.000000000000000000, -0.0000000000000000000, -0.0000000000000000000 ) ) ;
#349 = AXIS2_PLACEMENT_3D ( 'NONE', #309, #254, #162 ) ;
#350 = VERTEX_POINT ( 'NONE', #127 ) ;
#351 = DIRECTION ( 'NONE',  ( 0.0000000000000000000, 0.0000000000000000000, 1.000000000000000000 ) ) ;
#352 = EDGE_CURVE ( 'NONE', #132, #41, #311, .T. ) ;
#353 = LINE ( 'NONE', #377, #33 ) ;
#354 = CARTESIAN_POINT ( 'NONE',  ( 45.00000000000000000, 0.0000000000000000000, 4.099999999999999600 ) ) ;
#355 = VERTEX_POINT ( 'NONE', #354 ) ;
#356 = PRODUCT_DEFINITION_SHAPE ( 'NONE', 'NONE',  #157 ) ;
#357 = AXIS2_PLACEMENT_3D ( 'NONE', #267, #120, #147 ) ;
#358 = CIRCLE ( 'NONE', #357, 4.099999999999999600 ) ;
#359 = PRESENTATION_STYLE_ASSIGNMENT (( #110 ) ) ;
#360 = FACE_OUTER_BOUND ( 'NONE', #215, .T. ) ;
#361 = VERTEX_POINT ( 'NONE', #331 ) ;
#362 = UNCERTAINTY_MEASURE_WITH_UNIT (LENGTH_MEASURE( 1.000000000000000100E-005 ), #204, 'distance_accuracy_value', 'NONE');
#363 = LINE ( 'NONE', #291, #275 ) ;
#364 = CIRCLE ( 'NONE', #48, 3.689999999999998600 ) ;
#365 = EDGE_LOOP ( 'NONE', ( #124, #241 ) ) ;
#366 =( LENGTH_UNIT ( ) NAMED_UNIT ( * ) SI_UNIT ( .MILLI., .METRE. ) );
#367 = STYLED_ITEM ( 'NONE', ( #359 ), #74 ) ;
#368 = AXIS2_PLACEMENT_3D ( 'NONE', #321, #348, #346 ) ;
#369 = CARTESIAN_POINT ( 'NONE',  ( 89.00000000000000000, 5.510910596163092500E-016, -4.500000000000002700 ) ) ;
#370 = EDGE_CURVE ( 'NONE', #94, #93, #67, .T. ) ;
#371 = AXIS2_PLACEMENT_3D ( 'NONE', #280, #44, #318 ) ;
#372 = EDGE_CURVE ( 'NONE', #355, #43, #187, .T. ) ;
#373 = DIRECTION ( 'NONE',  ( -1.000000000000000000, -0.0000000000000000000, -0.0000000000000000000 ) ) ;
#374 = SHAPE_DEFINITION_REPRESENTATION ( #356, #303 ) ;
#375 = DIRECTION ( 'NONE',  ( -1.000000000000000000, -0.0000000000000000000, -0.0000000000000000000 ) ) ;
#376 = DIRECTION ( 'NONE',  ( 0.0000000000000000000, 0.0000000000000000000, 1.000000000000000000 ) ) ;
#377 = CARTESIAN_POINT ( 'NONE',  ( 0.0000000000000000000, 6.123233995736770200E-016, -5.000000000000002700 ) ) ;
#378 = CONICAL_SURFACE ( 'NONE', #368, 4.099999999999999600, 0.7853981633974410600 ) ;
#379 = ORIENTED_EDGE ( 'NONE', *, *, #251, .T. ) ;
#380 = DIRECTION ( 'NONE',  ( -1.000000000000000000, -0.0000000000000000000, -0.0000000000000000000 ) ) ;
#381 = AXIS2_PLACEMENT_3D ( 'NONE', #178, #87, #211 ) ;
#382 = DIRECTION ( 'NONE',  ( -1.000000000000000000, -0.0000000000000000000, -0.0000000000000000000 ) ) ;
#383 = ADVANCED_FACE ( 'NONE', ( #72 ), #314, .T. ) ;
#384 = DIRECTION ( 'NONE',  ( 0.0000000000000000000, 0.0000000000000000000, 1.000000000000000000 ) ) ;
#385 = VECTOR ( 'NONE', #339, 1000.000000000000000 ) ;
#386 = ADVANCED_FACE ( 'NONE', ( #158 ), #139, .T. ) ;
#387 = CARTESIAN_POINT ( 'NONE',  ( 0.0000000000000000000, 0.0000000000000000000, 0.0000000000000000000 ) ) ;
#388 = MECHANICAL_DESIGN_GEOMETRIC_PRESENTATION_REPRESENTATION (  '', ( #216 ), #296 ) ;
#389 = DIRECTION ( 'NONE',  ( -1.000000000000000000, 0.0000000000000000000, -0.0000000000000000000 ) ) ;
#390 =( NAMED_UNIT ( * ) SI_UNIT ( $, .STERADIAN. ) SOLID_ANGLE_UNIT ( ) );
#391 = LINE ( 'NONE', #299, #197 ) ;
#392 = VECTOR ( 'NONE', #259, 1000.000000000000000 ) ;
#393 = ORIENTED_EDGE ( 'NONE', *, *, #75, .F. ) ;
ENDSEC;
END-ISO-10303-21;
