ISO-10303-21;
HEADER;
FILE_DESCRIPTION (( 'STEP AP214' ),
    '1' );
FILE_NAME ('03-3393.STEP',
    '2025-07-09T15:18:47',
    ( '' ),
    ( '' ),
    'SwSTEP 2.0',
    'SolidWorks 2023',
    '' );
FILE_SCHEMA (( 'AUTOMOTIVE_DESIGN' ));
ENDSEC;

DATA;
#1 = EDGE_CURVE ( 'NONE', #351, #183, #57, .T. ) ;
#2 =( CONVERSION_BASED_UNIT ( 'INCH', #278 ) LENGTH_UNIT ( ) NAMED_UNIT ( #131 ) );
#3 = AXIS2_PLACEMENT_3D ( 'NONE', #290, #191, #350 ) ;
#4 = CARTESIAN_POINT ( 'NONE',  ( 0.000000000000000000, 0.000000000000000000, 0.000000000000000000 ) ) ;
#5 = CIRCLE ( 'NONE', #241, 0.1015000000000000069 ) ;
#6 = UNCERTAINTY_MEASURE_WITH_UNIT (LENGTH_MEASURE( 1.000000000000000082E-05 ), #97, 'distance_accuracy_value', 'NONE');
#7 = DIRECTION ( 'NONE',  ( 0.000000000000000000, 0.000000000000000000, 1.000000000000000000 ) ) ;
#8 = ORIENTED_EDGE ( 'NONE', *, *, #244, .F. ) ;
#9 = DIRECTION ( 'NONE',  ( -1.000000000000000000, 0.000000000000000000, 0.000000000000000000 ) ) ;
#10 = ORIENTED_EDGE ( 'NONE', *, *, #221, .F. ) ;
#11 = CARTESIAN_POINT ( 'NONE',  ( 0.000000000000000000, 0.000000000000000000, 0.000000000000000000 ) ) ;
#12 = EDGE_LOOP ( 'NONE', ( #285, #185 ) ) ;
#13 = AXIS2_PLACEMENT_3D ( 'NONE', #128, #190, #218 ) ;
#14 = DIRECTION ( 'NONE',  ( 1.000000000000000000, 0.000000000000000000, 0.000000000000000000 ) ) ;
#15 = ORIENTED_EDGE ( 'NONE', *, *, #298, .T. ) ;
#16 = CARTESIAN_POINT ( 'NONE',  ( 0.06250000000000000000, 0.000000000000000000, -0.1874999999999999722 ) ) ;
#17 = VERTEX_POINT ( 'NONE', #293 ) ;
#18 = FACE_OUTER_BOUND ( 'NONE', #355, .T. ) ;
#19 = AXIS2_PLACEMENT_3D ( 'NONE', #142, #87, #37 ) ;
#20 = CYLINDRICAL_SURFACE ( 'NONE', #165, 0.2500000000000000000 ) ;
#21 = APPLICATION_PROTOCOL_DEFINITION ( 'draft international standard', 'automotive_design', 1998, #334 ) ;
#22 = CARTESIAN_POINT ( 'NONE',  ( 0.000000000000000000, 0.000000000000000000, 0.000000000000000000 ) ) ;
#23 = EDGE_LOOP ( 'NONE', ( #214, #10 ) ) ;
#24 =( LENGTH_UNIT ( ) NAMED_UNIT ( * ) SI_UNIT ( $, .METRE. ) );
#25 = DIRECTION ( 'NONE',  ( -1.000000000000000000, 0.000000000000000000, 0.000000000000000000 ) ) ;
#26 = EDGE_CURVE ( 'NONE', #209, #291, #99, .T. ) ;
#27 = PLANE ( 'NONE',  #302 ) ;
#28 = ADVANCED_FACE ( 'NONE', ( #18 ), #159, .T. ) ;
#29 =( GEOMETRIC_REPRESENTATION_CONTEXT ( 3 ) GLOBAL_UNCERTAINTY_ASSIGNED_CONTEXT ( ( #242 ) ) GLOBAL_UNIT_ASSIGNED_CONTEXT ( ( #2, #84, #112 ) ) REPRESENTATION_CONTEXT ( 'NONE', 'WORKASPACE' ) );
#30 = AXIS2_PLACEMENT_3D ( 'NONE', #281, #180, #306 ) ;
#31 = DIRECTION ( 'NONE',  ( 0.000000000000000000, 0.000000000000000000, 1.000000000000000000 ) ) ;
#32 = EDGE_CURVE ( 'NONE', #236, #235, #203, .T. ) ;
#33 = CARTESIAN_POINT ( 'NONE',  ( 0.000000000000000000, 0.000000000000000000, 0.1015000000000000069 ) ) ;
#34 = CARTESIAN_POINT ( 'NONE',  ( 0.000000000000000000, 0.000000000000000000, 0.000000000000000000 ) ) ;
#35 = PRODUCT_DEFINITION_FORMATION_WITH_SPECIFIED_SOURCE ( 'ANY', '', #320, .NOT_KNOWN. ) ;
#36 = CARTESIAN_POINT ( 'NONE',  ( 0.000000000000000000, 0.000000000000000000, -0.1874999999999999722 ) ) ;
#37 = DIRECTION ( 'NONE',  ( 1.092739197466112142E-15, 0.000000000000000000, -1.000000000000000000 ) ) ;
#38 = ADVANCED_FACE ( 'NONE', ( #47 ), #20, .T. ) ;
#39 = DIRECTION ( 'NONE',  ( 0.000000000000000000, 0.000000000000000000, -1.000000000000000000 ) ) ;
#40 = ORIENTED_EDGE ( 'NONE', *, *, #26, .T. ) ;
#41 = FACE_OUTER_BOUND ( 'NONE', #274, .T. ) ;
#42 = EDGE_LOOP ( 'NONE', ( #144, #319, #15, #92 ) ) ;
#43 = AXIS2_PLACEMENT_3D ( 'NONE', #361, #58, #83 ) ;
#44 = CARTESIAN_POINT ( 'NONE',  ( -0.2500000000000000000, 0.000000000000000000, 0.000000000000000000 ) ) ;
#45 = DIRECTION ( 'NONE',  ( 0.000000000000000000, 0.000000000000000000, -1.000000000000000000 ) ) ;
#46 = CARTESIAN_POINT ( 'NONE',  ( -0.5071999999980172369, 0.000000000000000000, 0.2499999999999069078 ) ) ;
#47 = FACE_OUTER_BOUND ( 'NONE', #42, .T. ) ;
#48 = CONICAL_SURFACE ( 'NONE', #249, 0.2499999999999069078, 0.5235987755978991354 ) ;
#49 = CONICAL_SURFACE ( 'NONE', #268, 0.2499999999999069078, 0.7853981633974482790 ) ;
#50 =( NAMED_UNIT ( * ) SI_UNIT ( $, .STERADIAN. ) SOLID_ANGLE_UNIT ( ) );
#51 = ORIENTED_EDGE ( 'NONE', *, *, #78, .F. ) ;
#52 = DIRECTION ( 'NONE',  ( -1.000000000000000000, -0.000000000000000000, -0.000000000000000000 ) ) ;
#53 = SURFACE_STYLE_FILL_AREA ( #252 ) ;
#54 = ADVANCED_FACE ( 'NONE', ( #130 ), #195, .T. ) ;
#55 = SURFACE_SIDE_STYLE ('',( #53 ) ) ;
#56 = DIRECTION ( 'NONE',  ( -1.000000000000000000, 0.000000000000000000, 0.000000000000000000 ) ) ;
#57 = CIRCLE ( 'NONE', #170, 0.1874999999999999722 ) ;
#58 = DIRECTION ( 'NONE',  ( 1.000000000000000000, -0.000000000000000000, 5.463695987330561698E-16 ) ) ;
#59 = DIRECTION ( 'NONE',  ( 1.000000000000000000, -0.000000000000000000, 5.463695987330561698E-16 ) ) ;
#60 = FACE_BOUND ( 'NONE', #316, .T. ) ;
#61 =( GEOMETRIC_REPRESENTATION_CONTEXT ( 3 ) GLOBAL_UNCERTAINTY_ASSIGNED_CONTEXT ( ( #6 ) ) GLOBAL_UNIT_ASSIGNED_CONTEXT ( ( #97, #237, #50 ) ) REPRESENTATION_CONTEXT ( 'NONE', 'WORKASPACE' ) );
#62 = VERTEX_POINT ( 'NONE', #198 ) ;
#63 = AXIS2_PLACEMENT_3D ( 'NONE', #114, #9, #66 ) ;
#64 = EDGE_CURVE ( 'NONE', #124, #209, #247, .T. ) ;
#65 = CARTESIAN_POINT ( 'NONE',  ( -0.5071999999999999842, 0.000000000000000000, 0.2500000000010516588 ) ) ;
#66 = DIRECTION ( 'NONE',  ( 0.000000000000000000, 0.000000000000000000, 1.000000000000000000 ) ) ;
#67 = ORIENTED_EDGE ( 'NONE', *, *, #323, .F. ) ;
#68 = FACE_OUTER_BOUND ( 'NONE', #23, .T. ) ;
#69 = DIRECTION ( 'NONE',  ( 1.000000000000000000, 0.000000000000000000, 0.000000000000000000 ) ) ;
#70 = ORIENTED_EDGE ( 'NONE', *, *, #174, .F. ) ;
#71 = DIRECTION ( 'NONE',  ( 0.000000000000000000, 0.000000000000000000, 1.000000000000000000 ) ) ;
#72 = FACE_OUTER_BOUND ( 'NONE', #213, .T. ) ;
#73 = ORIENTED_EDGE ( 'NONE', *, *, #161, .F. ) ;
#74 = AXIS2_PLACEMENT_3D ( 'NONE', #22, #267, #71 ) ;
#75 = AXIS2_PLACEMENT_3D ( 'NONE', #283, #147, #259 ) ;
#76 = LINE ( 'NONE', #125, #233 ) ;
#77 = ORIENTED_EDGE ( 'NONE', *, *, #202, .T. ) ;
#78 = EDGE_CURVE ( 'NONE', #235, #183, #330, .T. ) ;
#79 = DIRECTION ( 'NONE',  ( 0.000000000000000000, 0.000000000000000000, -1.000000000000000000 ) ) ;
#80 = CIRCLE ( 'NONE', #299, 0.1874999999999999722 ) ;
#81 = CARTESIAN_POINT ( 'NONE',  ( 0.000000000000000000, 0.000000000000000000, 0.1015000000000000069 ) ) ;
#82 = FACE_OUTER_BOUND ( 'NONE', #181, .T. ) ;
#83 = DIRECTION ( 'NONE',  ( 0.000000000000000000, 0.000000000000000000, -1.000000000000000000 ) ) ;
#84 =( NAMED_UNIT ( * ) PLANE_ANGLE_UNIT ( ) SI_UNIT ( $, .RADIAN. ) );
#85 = DIRECTION ( 'NONE',  ( 1.000000000000000000, -0.000000000000000000, -0.000000000000000000 ) ) ;
#86 = ORIENTED_EDGE ( 'NONE', *, *, #1, .T. ) ;
#87 = DIRECTION ( 'NONE',  ( 1.000000000000000000, -0.000000000000000000, 5.463695987330561698E-16 ) ) ;
#88 = ORIENTED_EDGE ( 'NONE', *, *, #1, .F. ) ;
#89 = CIRCLE ( 'NONE', #340, 0.1874999999999999722 ) ;
#90 = FACE_OUTER_BOUND ( 'NONE', #336, .T. ) ;
#91 = AXIS2_PLACEMENT_3D ( 'NONE', #312, #182, #7 ) ;
#92 = ORIENTED_EDGE ( 'NONE', *, *, #202, .F. ) ;
#93 = CARTESIAN_POINT ( 'NONE',  ( -1.969999999998908624, 3.061616997867242867E-17, 0.2499999999999069078 ) ) ;
#94 = ADVANCED_FACE ( 'NONE', ( #164 ), #356, .T. ) ;
#95 = DIRECTION ( 'NONE',  ( 0.7071067811865472397, 8.659560562354934091E-17, 0.7071067811865479058 ) ) ;
#96 = AXIS2_PLACEMENT_3D ( 'NONE', #44, #189, #354 ) ;
#97 =( CONVERSION_BASED_UNIT ( 'INCH', #240 ) LENGTH_UNIT ( ) NAMED_UNIT ( #275 ) );
#98 = ORIENTED_EDGE ( 'NONE', *, *, #329, .F. ) ;
#99 = LINE ( 'NONE', #46, #260 ) ;
#100 = ORIENTED_EDGE ( 'NONE', *, *, #232, .T. ) ;
#101 = VERTEX_POINT ( 'NONE', #332 ) ;
#102 = ADVANCED_FACE ( 'NONE', ( #82 ), #27, .T. ) ;
#103 = AXIS2_PLACEMENT_3D ( 'NONE', #331, #277, #110 ) ;
#104 = DIRECTION ( 'NONE',  ( -1.000000000000000000, 0.000000000000000000, 0.000000000000000000 ) ) ;
#105 = DIRECTION ( 'NONE',  ( 0.000000000000000000, 0.000000000000000000, 1.000000000000000000 ) ) ;
#106 = AXIS2_PLACEMENT_3D ( 'NONE', #315, #272, #69 ) ;
#107 = CARTESIAN_POINT ( 'NONE',  ( 0.000000000000000000, 2.296212748401286801E-17, 0.1874999999999999722 ) ) ;
#108 = CIRCLE ( 'NONE', #122, 0.2500000000000000000 ) ;
#109 = CIRCLE ( 'NONE', #148, 0.1015000000000000069 ) ;
#110 = DIRECTION ( 'NONE',  ( 0.000000000000000000, 0.000000000000000000, 1.000000000000000000 ) ) ;
#111 = CARTESIAN_POINT ( 'NONE',  ( 0.06250000000000000000, 2.296212748401286801E-17, 0.1874999999999999722 ) ) ;
#112 =( NAMED_UNIT ( * ) SI_UNIT ( $, .STERADIAN. ) SOLID_ANGLE_UNIT ( ) );
#113 = VECTOR ( 'NONE', #25, 39.37007874015748143 ) ;
#114 = CARTESIAN_POINT ( 'NONE',  ( 0.000000000000000000, 0.000000000000000000, 0.000000000000000000 ) ) ;
#115 = EDGE_CURVE ( 'NONE', #17, #150, #222, .T. ) ;
#116 = DIRECTION ( 'NONE',  ( 1.000000000000000000, 0.000000000000000000, 0.000000000000000000 ) ) ;
#117 = ORIENTED_EDGE ( 'NONE', *, *, #129, .T. ) ;
#118 = CYLINDRICAL_SURFACE ( 'NONE', #250, 0.1015000000000000069 ) ;
#119 = ORIENTED_EDGE ( 'NONE', *, *, #323, .T. ) ;
#120 = AXIS2_PLACEMENT_3D ( 'NONE', #297, #163, #300 ) ;
#121 = CARTESIAN_POINT ( 'NONE',  ( -0.2499904550739627529, 0.000000000000000000, 0.1015000000000000069 ) ) ;
#122 = AXIS2_PLACEMENT_3D ( 'NONE', #335, #85, #204 ) ;
#123 = DIRECTION ( 'NONE',  ( -1.000000000000000000, 0.000000000000000000, 0.000000000000000000 ) ) ;
#124 = VERTEX_POINT ( 'NONE', #33 ) ;
#125 = CARTESIAN_POINT ( 'NONE',  ( -1.969999999998908180, 0.000000000000000000, -0.2499999999999069078 ) ) ;
#126 = EDGE_LOOP ( 'NONE', ( #51, #311, #345, #86 ) ) ;
#127 = PRODUCT_CONTEXT ( 'NONE', #334, 'mechanical' ) ;
#128 = CARTESIAN_POINT ( 'NONE',  ( 0.000000000000000000, 0.000000000000000000, 0.000000000000000000 ) ) ;
#129 = EDGE_CURVE ( 'NONE', #101, #124, #109, .T. ) ;
#130 = FACE_OUTER_BOUND ( 'NONE', #126, .T. ) ;
#131 = DIMENSIONAL_EXPONENTS ( 1.000000000000000000, 0.000000000000000000, 0.000000000000000000, 0.000000000000000000, 0.000000000000000000, 0.000000000000000000, 0.000000000000000000 ) ;
#132 = PRODUCT_RELATED_PRODUCT_CATEGORY ( 'part', '', ( #320 ) ) ;
#133 = APPLICATION_PROTOCOL_DEFINITION ( 'draft international standard', 'automotive_design', 1998, #166 ) ;
#134 = ORIENTED_EDGE ( 'NONE', *, *, #305, .T. ) ;
#135 = ORIENTED_EDGE ( 'NONE', *, *, #329, .T. ) ;
#136 = PRESENTATION_LAYER_ASSIGNMENT (  '', '', ( #358 ) ) ;
#137 = DIRECTION ( 'NONE',  ( -1.000000000000000000, 0.000000000000000000, 0.000000000000000000 ) ) ;
#138 = DIRECTION ( 'NONE',  ( 0.000000000000000000, 0.000000000000000000, -1.000000000000000000 ) ) ;
#139 = DIRECTION ( 'NONE',  ( -1.000000000000000000, 0.000000000000000000, 0.000000000000000000 ) ) ;
#140 = EDGE_CURVE ( 'NONE', #263, #318, #353, .T. ) ;
#141 = DIRECTION ( 'NONE',  ( 0.000000000000000000, 0.000000000000000000, 1.000000000000000000 ) ) ;
#142 = CARTESIAN_POINT ( 'NONE',  ( -1.969999999998908402, 0.000000000000000000, 0.000000000000000000 ) ) ;
#143 = CARTESIAN_POINT ( 'NONE',  ( -0.5071999999980172369, 0.000000000000000000, 0.000000000000000000 ) ) ;
#144 = ORIENTED_EDGE ( 'NONE', *, *, #161, .T. ) ;
#145 = CARTESIAN_POINT ( 'NONE',  ( 0.000000000000000000, 0.000000000000000000, -0.1874999999999999722 ) ) ;
#146 = PRODUCT_DEFINITION_CONTEXT ( 'detailed design', #166, 'design' ) ;
#147 = DIRECTION ( 'NONE',  ( 1.000000000000000000, -0.000000000000000000, 5.463695987330561698E-16 ) ) ;
#148 = AXIS2_PLACEMENT_3D ( 'NONE', #360, #56, #245 ) ;
#149 = CARTESIAN_POINT ( 'NONE',  ( -0.2500000000000000000, 0.000000000000000000, 0.2500000000000000000 ) ) ;
#150 = VERTEX_POINT ( 'NONE', #196 ) ;
#151 = CARTESIAN_POINT ( 'NONE',  ( 0.06250000000000000000, 0.000000000000000000, 0.000000000000000000 ) ) ;
#152 = ORIENTED_EDGE ( 'NONE', *, *, #64, .T. ) ;
#153 = EDGE_CURVE ( 'NONE', #209, #17, #5, .T. ) ;
#154 = DIRECTION ( 'NONE',  ( -0.8660254037846384367, 0.000000000000000000, 0.4999999999996537769 ) ) ;
#155 = AXIS2_PLACEMENT_3D ( 'NONE', #11, #14, #45 ) ;
#156 = CIRCLE ( 'NONE', #206, 0.2500000000000000000 ) ;
#157 = EDGE_LOOP ( 'NONE', ( #254, #217, #324, #211 ) ) ;
#158 = PRODUCT_DEFINITION ( 'UNKNOWN', '', #35, #146 ) ;
#159 = CYLINDRICAL_SURFACE ( 'NONE', #74, 0.1015000000000000069 ) ;
#160 = PRODUCT_DEFINITION_SHAPE ( 'NONE', 'NONE',  #158 ) ;
#161 = EDGE_CURVE ( 'NONE', #291, #150, #156, .T. ) ;
#162 = SHAPE_DEFINITION_REPRESENTATION ( #160, #296 ) ;
#163 = DIRECTION ( 'NONE',  ( 1.000000000000000000, 0.000000000000000000, 0.000000000000000000 ) ) ;
#164 = FACE_OUTER_BOUND ( 'NONE', #12, .T. ) ;
#165 = AXIS2_PLACEMENT_3D ( 'NONE', #352, #104, #194 ) ;
#166 = APPLICATION_CONTEXT ( 'automotive_design' ) ;
#167 = LINE ( 'NONE', #168, #113 ) ;
#168 = CARTESIAN_POINT ( 'NONE',  ( 0.000000000000000000, 1.243016501134563680E-17, -0.1015000000000000069 ) ) ;
#169 = CARTESIAN_POINT ( 'NONE',  ( -0.5071999999999999842, 0.000000000000000000, 0.000000000000000000 ) ) ;
#170 = AXIS2_PLACEMENT_3D ( 'NONE', #292, #52, #79 ) ;
#171 = EDGE_CURVE ( 'NONE', #17, #209, #289, .T. ) ;
#172 = MANIFOLD_SOLID_BREP ( 'Body1', #216 ) ;
#173 = PRESENTATION_STYLE_ASSIGNMENT (( #201 ) ) ;
#174 = EDGE_CURVE ( 'NONE', #101, #17, #167, .T. ) ;
#175 = DIRECTION ( 'NONE',  ( -1.000000000000000000, 0.000000000000000000, 0.000000000000000000 ) ) ;
#176 = LINE ( 'NONE', #149, #179 ) ;
#177 = ORIENTED_EDGE ( 'NONE', *, *, #78, .T. ) ;
#178 = VECTOR ( 'NONE', #226, 39.37007874015748143 ) ;
#179 = VECTOR ( 'NONE', #123, 39.37007874015748143 ) ;
#180 = DIRECTION ( 'NONE',  ( -1.000000000000000000, 0.000000000000000000, 0.000000000000000000 ) ) ;
#181 = EDGE_LOOP ( 'NONE', ( #88, #347 ) ) ;
#182 = DIRECTION ( 'NONE',  ( -1.000000000000000000, 0.000000000000000000, 0.000000000000000000 ) ) ;
#183 = VERTEX_POINT ( 'NONE', #111 ) ;
#184 = FACE_OUTER_BOUND ( 'NONE', #322, .T. ) ;
#185 = ORIENTED_EDGE ( 'NONE', *, *, #305, .F. ) ;
#186 = ORIENTED_EDGE ( 'NONE', *, *, #129, .F. ) ;
#187 = ADVANCED_FACE ( 'NONE', ( #90 ), #327, .T. ) ;
#188 = ORIENTED_EDGE ( 'NONE', *, *, #140, .T. ) ;
#189 = DIRECTION ( 'NONE',  ( -1.000000000000000000, 0.000000000000000000, 0.000000000000000000 ) ) ;
#190 = DIRECTION ( 'NONE',  ( 1.000000000000000000, 0.000000000000000000, 0.000000000000000000 ) ) ;
#191 = DIRECTION ( 'NONE',  ( 1.000000000000000000, -0.000000000000000000, -0.000000000000000000 ) ) ;
#192 = CONICAL_SURFACE ( 'NONE', #30, 0.2499999999999069078, 0.5235987755978991354 ) ;
#193 =( LENGTH_UNIT ( ) NAMED_UNIT ( * ) SI_UNIT ( $, .METRE. ) );
#194 = DIRECTION ( 'NONE',  ( 0.000000000000000000, 0.000000000000000000, 1.000000000000000000 ) ) ;
#195 = CYLINDRICAL_SURFACE ( 'NONE', #120, 0.1874999999999999722 ) ;
#196 = CARTESIAN_POINT ( 'NONE',  ( -0.5071999999999999842, 3.061616997881261789E-17, -0.2500000000010516588 ) ) ;
#197 = EDGE_CURVE ( 'NONE', #150, #288, #256, .T. ) ;
#198 = CARTESIAN_POINT ( 'NONE',  ( -1.969999999999999973, 3.061616997853877222E-17, 0.2499999999988155308 ) ) ;
#199 = DIRECTION ( 'NONE',  ( -1.000000000000000000, 0.000000000000000000, 0.000000000000000000 ) ) ;
#200 = ADVANCED_FACE ( 'NONE', ( #210 ), #48, .T. ) ;
#201 = SURFACE_STYLE_USAGE ( .BOTH. , #55 ) ;
#202 = EDGE_CURVE ( 'NONE', #291, #62, #176, .T. ) ;
#203 = CIRCLE ( 'NONE', #13, 0.1874999999999999722 ) ;
#204 = DIRECTION ( 'NONE',  ( 0.000000000000000000, 0.000000000000000000, 1.000000000000000000 ) ) ;
#205 = CARTESIAN_POINT ( 'NONE',  ( -0.2500000000000000000, 3.061616997868383018E-17, -0.2500000000000000000 ) ) ;
#206 = AXIS2_PLACEMENT_3D ( 'NONE', #169, #137, #31 ) ;
#207 = CIRCLE ( 'NONE', #63, 0.1015000000000000069 ) ;
#208 = DIRECTION ( 'NONE',  ( 0.000000000000000000, 0.000000000000000000, -1.000000000000000000 ) ) ;
#209 = VERTEX_POINT ( 'NONE', #121 ) ;
#210 = FACE_OUTER_BOUND ( 'NONE', #215, .T. ) ;
#211 = ORIENTED_EDGE ( 'NONE', *, *, #64, .F. ) ;
#212 = VECTOR ( 'NONE', #337, 39.37007874015748143 ) ;
#213 = EDGE_LOOP ( 'NONE', ( #273, #295, #77, #119 ) ) ;
#214 = ORIENTED_EDGE ( 'NONE', *, *, #32, .F. ) ;
#215 = EDGE_LOOP ( 'NONE', ( #282, #265, #73, #270 ) ) ;
#216 = CLOSED_SHELL ( 'NONE', ( #38, #200, #187, #271, #317, #357, #303, #258, #28, #94, #286, #54, #102 ) ) ;
#217 = ORIENTED_EDGE ( 'NONE', *, *, #174, .T. ) ;
#218 = DIRECTION ( 'NONE',  ( 0.000000000000000000, 0.000000000000000000, -1.000000000000000000 ) ) ;
#219 = CARTESIAN_POINT ( 'NONE',  ( -0.2499904550739627529, 0.000000000000000000, 0.000000000000000000 ) ) ;
#220 = DIRECTION ( 'NONE',  ( 1.000000000000000000, 0.000000000000000000, 0.000000000000000000 ) ) ;
#221 = EDGE_CURVE ( 'NONE', #235, #236, #89, .T. ) ;
#222 = LINE ( 'NONE', #301, #321 ) ;
#223 = DIRECTION ( 'NONE',  ( -1.000000000000000000, 0.000000000000000000, 0.000000000000000000 ) ) ;
#224 = VECTOR ( 'NONE', #220, 39.37007874015748143 ) ;
#225 = CARTESIAN_POINT ( 'NONE',  ( 0.000000000000000000, 0.000000000000000000, 0.000000000000000000 ) ) ;
#226 = DIRECTION ( 'NONE',  ( 1.000000000000000000, 0.000000000000000000, 0.000000000000000000 ) ) ;
#227 = CARTESIAN_POINT ( 'NONE',  ( -1.969999999999999973, 0.000000000000000000, -0.2499999999988150035 ) ) ;
#228 = ORIENTED_EDGE ( 'NONE', *, *, #246, .F. ) ;
#229 = CIRCLE ( 'NONE', #75, 0.2199999999995600197 ) ;
#230 = DIRECTION ( 'NONE',  ( 1.092739197466112142E-15, 0.000000000000000000, -1.000000000000000000 ) ) ;
#231 = LINE ( 'NONE', #93, #341 ) ;
#232 = EDGE_CURVE ( 'NONE', #318, #62, #231, .T. ) ;
#233 = VECTOR ( 'NONE', #266, 39.37007874015748143 ) ;
#234 = DIRECTION ( 'NONE',  ( 0.000000000000000000, 0.000000000000000000, -1.000000000000000000 ) ) ;
#235 = VERTEX_POINT ( 'NONE', #344 ) ;
#236 = VERTEX_POINT ( 'NONE', #145 ) ;
#237 =( NAMED_UNIT ( * ) PLANE_ANGLE_UNIT ( ) SI_UNIT ( $, .RADIAN. ) );
#238 = ORIENTED_EDGE ( 'NONE', *, *, #32, .T. ) ;
#239 = EDGE_LOOP ( 'NONE', ( #243, #134, #135, #67 ) ) ;
#240 = LENGTH_MEASURE_WITH_UNIT ( LENGTH_MEASURE( 0.02539999999999999897 ), #193 );
#241 = AXIS2_PLACEMENT_3D ( 'NONE', #219, #199, #105 ) ;
#242 = UNCERTAINTY_MEASURE_WITH_UNIT (LENGTH_MEASURE( 1.000000000000000082E-05 ), #2, 'distance_accuracy_value', 'NONE');
#243 = ORIENTED_EDGE ( 'NONE', *, *, #232, .F. ) ;
#244 = EDGE_CURVE ( 'NONE', #124, #101, #207, .T. ) ;
#245 = DIRECTION ( 'NONE',  ( 0.000000000000000000, 0.000000000000000000, 1.000000000000000000 ) ) ;
#246 = EDGE_CURVE ( 'NONE', #150, #291, #308, .T. ) ;
#247 = LINE ( 'NONE', #81, #314 ) ;
#248 = DIRECTION ( 'NONE',  ( -0.8660254037846384367, 6.123233995732525909E-17, -0.4999999999996537769 ) ) ;
#249 = AXIS2_PLACEMENT_3D ( 'NONE', #143, #175, #310 ) ;
#250 = AXIS2_PLACEMENT_3D ( 'NONE', #34, #342, #284 ) ;
#251 = CARTESIAN_POINT ( 'NONE',  ( 0.06250000000000000000, 0.000000000000000000, 0.000000000000000000 ) ) ;
#252 = FILL_AREA_STYLE ('',( #328 ) ) ;
#253 = LINE ( 'NONE', #36, #178 ) ;
#254 = ORIENTED_EDGE ( 'NONE', *, *, #244, .T. ) ;
#255 = CARTESIAN_POINT ( 'NONE',  ( -1.969999999998908402, 0.000000000000000000, 0.000000000000000000 ) ) ;
#256 = LINE ( 'NONE', #205, #212 ) ;
#257 = ORIENTED_EDGE ( 'NONE', *, *, #298, .F. ) ;
#258 = ADVANCED_FACE ( 'NONE', ( #304 ), #49, .T. ) ;
#259 = DIRECTION ( 'NONE',  ( 0.000000000000000000, 0.000000000000000000, -1.000000000000000000 ) ) ;
#260 = VECTOR ( 'NONE', #154, 39.37007874015748854 ) ;
#261 = EDGE_CURVE ( 'NONE', #236, #351, #253, .T. ) ;
#262 = CARTESIAN_POINT ( 'NONE',  ( -1.999999999999255262, 0.000000000000000000, -0.2199999999995600197 ) ) ;
#263 = VERTEX_POINT ( 'NONE', #262 ) ;
#264 = CYLINDRICAL_SURFACE ( 'NONE', #96, 0.2500000000000000000 ) ;
#265 = ORIENTED_EDGE ( 'NONE', *, *, #115, .T. ) ;
#266 = DIRECTION ( 'NONE',  ( 0.7071067811865479058, 0.000000000000000000, -0.7071067811865472397 ) ) ;
#267 = DIRECTION ( 'NONE',  ( -1.000000000000000000, 0.000000000000000000, 0.000000000000000000 ) ) ;
#268 = AXIS2_PLACEMENT_3D ( 'NONE', #255, #59, #230 ) ;
#269 = CARTESIAN_POINT ( 'NONE',  ( -1.999999999999255262, 2.877919977993585991E-17, 0.2199999999995600197 ) ) ;
#270 = ORIENTED_EDGE ( 'NONE', *, *, #26, .F. ) ;
#271 = ADVANCED_FACE ( 'NONE', ( #280 ), #118, .T. ) ;
#272 = DIRECTION ( 'NONE',  ( 0.000000000000000000, 0.000000000000000000, 1.000000000000000000 ) ) ;
#273 = ORIENTED_EDGE ( 'NONE', *, *, #197, .F. ) ;
#274 = EDGE_LOOP ( 'NONE', ( #238, #177, #349, #307 ) ) ;
#275 = DIMENSIONAL_EXPONENTS ( 1.000000000000000000, 0.000000000000000000, 0.000000000000000000, 0.000000000000000000, 0.000000000000000000, 0.000000000000000000, 0.000000000000000000 ) ;
#276 = AXIS2_PLACEMENT_3D ( 'NONE', #325, #139, #141 ) ;
#277 = DIRECTION ( 'NONE',  ( -1.000000000000000000, 0.000000000000000000, 0.000000000000000000 ) ) ;
#278 = LENGTH_MEASURE_WITH_UNIT ( LENGTH_MEASURE( 0.02539999999999999897 ), #24 );
#279 = DIRECTION ( 'NONE',  ( 1.000000000000000000, 0.000000000000000000, 0.000000000000000000 ) ) ;
#280 = FACE_OUTER_BOUND ( 'NONE', #157, .T. ) ;
#281 = CARTESIAN_POINT ( 'NONE',  ( -0.5071999999980172369, 0.000000000000000000, 0.000000000000000000 ) ) ;
#282 = ORIENTED_EDGE ( 'NONE', *, *, #153, .T. ) ;
#283 = CARTESIAN_POINT ( 'NONE',  ( -1.999999999999255262, 0.000000000000000000, -1.639108796218122113E-17 ) ) ;
#284 = DIRECTION ( 'NONE',  ( 0.000000000000000000, 0.000000000000000000, 1.000000000000000000 ) ) ;
#285 = ORIENTED_EDGE ( 'NONE', *, *, #140, .F. ) ;
#286 = ADVANCED_FACE ( 'NONE', ( #60, #68 ), #309, .F. ) ;
#287 = DIRECTION ( 'NONE',  ( 1.000000000000000000, 0.000000000000000000, 0.000000000000000000 ) ) ;
#288 = VERTEX_POINT ( 'NONE', #227 ) ;
#289 = CIRCLE ( 'NONE', #276, 0.1015000000000000069 ) ;
#290 = CARTESIAN_POINT ( 'NONE',  ( -1.969999999999999973, 0.000000000000000000, 0.000000000000000000 ) ) ;
#291 = VERTEX_POINT ( 'NONE', #65 ) ;
#292 = CARTESIAN_POINT ( 'NONE',  ( 0.06250000000000000000, 0.000000000000000000, 0.000000000000000000 ) ) ;
#293 = CARTESIAN_POINT ( 'NONE',  ( -0.2499904550739627529, 1.243016501134563680E-17, -0.1015000000000000069 ) ) ;
#294 = COLOUR_RGB ( '',0.6274509803921568540, 0.6274509803921568540, 0.6274509803921568540 ) ;
#295 = ORIENTED_EDGE ( 'NONE', *, *, #246, .T. ) ;
#296 = ADVANCED_BREP_SHAPE_REPRESENTATION ( '03-3393', ( #172, #106 ), #61 ) ;
#297 = CARTESIAN_POINT ( 'NONE',  ( 0.000000000000000000, 0.000000000000000000, 0.000000000000000000 ) ) ;
#298 = EDGE_CURVE ( 'NONE', #288, #62, #108, .T. ) ;
#299 = AXIS2_PLACEMENT_3D ( 'NONE', #151, #346, #234 ) ;
#300 = DIRECTION ( 'NONE',  ( 0.000000000000000000, 0.000000000000000000, -1.000000000000000000 ) ) ;
#301 = CARTESIAN_POINT ( 'NONE',  ( -0.5071999999980172369, 3.061616997867242867E-17, -0.2499999999999069078 ) ) ;
#302 = AXIS2_PLACEMENT_3D ( 'NONE', #251, #279, #138 ) ;
#303 = ADVANCED_FACE ( 'NONE', ( #184 ), #192, .T. ) ;
#304 = FACE_OUTER_BOUND ( 'NONE', #239, .T. ) ;
#305 = EDGE_CURVE ( 'NONE', #318, #263, #229, .T. ) ;
#306 = DIRECTION ( 'NONE',  ( 0.000000000000000000, 0.000000000000000000, 1.000000000000000000 ) ) ;
#307 = ORIENTED_EDGE ( 'NONE', *, *, #261, .F. ) ;
#308 = CIRCLE ( 'NONE', #91, 0.2500000000000000000 ) ;
#309 = PLANE ( 'NONE',  #359 ) ;
#310 = DIRECTION ( 'NONE',  ( 0.000000000000000000, 0.000000000000000000, 1.000000000000000000 ) ) ;
#311 = ORIENTED_EDGE ( 'NONE', *, *, #221, .T. ) ;
#312 = CARTESIAN_POINT ( 'NONE',  ( -0.5071999999999999842, 0.000000000000000000, 0.000000000000000000 ) ) ;
#313 = ORIENTED_EDGE ( 'NONE', *, *, #171, .F. ) ;
#314 = VECTOR ( 'NONE', #223, 39.37007874015748143 ) ;
#315 = CARTESIAN_POINT ( 'NONE',  ( 0.000000000000000000, 0.000000000000000000, 0.000000000000000000 ) ) ;
#316 = EDGE_LOOP ( 'NONE', ( #8, #186 ) ) ;
#317 = ADVANCED_FACE ( 'NONE', ( #41 ), #338, .T. ) ;
#318 = VERTEX_POINT ( 'NONE', #269 ) ;
#319 = ORIENTED_EDGE ( 'NONE', *, *, #197, .T. ) ;
#320 = PRODUCT ( '03-3393', '03-3393', '', ( #127 ) ) ;
#321 = VECTOR ( 'NONE', #248, 39.37007874015748854 ) ;
#322 = EDGE_LOOP ( 'NONE', ( #343, #339, #40, #228 ) ) ;
#323 = EDGE_CURVE ( 'NONE', #62, #288, #326, .T. ) ;
#324 = ORIENTED_EDGE ( 'NONE', *, *, #153, .F. ) ;
#325 = CARTESIAN_POINT ( 'NONE',  ( -0.2499904550739627529, 0.000000000000000000, 0.000000000000000000 ) ) ;
#326 = CIRCLE ( 'NONE', #3, 0.2500000000000000000 ) ;
#327 = CONICAL_SURFACE ( 'NONE', #19, 0.2499999999999069078, 0.7853981633974482790 ) ;
#328 = FILL_AREA_STYLE_COLOUR ( '', #294 ) ;
#329 = EDGE_CURVE ( 'NONE', #263, #288, #76, .T. ) ;
#330 = LINE ( 'NONE', #107, #224 ) ;
#331 = CARTESIAN_POINT ( 'NONE',  ( -2.000000000000000000, 0.000000000000000000, 0.000000000000000000 ) ) ;
#332 = CARTESIAN_POINT ( 'NONE',  ( 0.000000000000000000, 1.243016501134563680E-17, -0.1015000000000000069 ) ) ;
#333 = MECHANICAL_DESIGN_GEOMETRIC_PRESENTATION_REPRESENTATION (  '', ( #358 ), #29 ) ;
#334 = APPLICATION_CONTEXT ( 'automotive_design' ) ;
#335 = CARTESIAN_POINT ( 'NONE',  ( -1.969999999999999973, 0.000000000000000000, 0.000000000000000000 ) ) ;
#336 = EDGE_LOOP ( 'NONE', ( #188, #100, #257, #98 ) ) ;
#337 = DIRECTION ( 'NONE',  ( -1.000000000000000000, 0.000000000000000000, 0.000000000000000000 ) ) ;
#338 = CYLINDRICAL_SURFACE ( 'NONE', #155, 0.1874999999999999722 ) ;
#339 = ORIENTED_EDGE ( 'NONE', *, *, #171, .T. ) ;
#340 = AXIS2_PLACEMENT_3D ( 'NONE', #225, #116, #208 ) ;
#341 = VECTOR ( 'NONE', #95, 39.37007874015748143 ) ;
#342 = DIRECTION ( 'NONE',  ( -1.000000000000000000, 0.000000000000000000, 0.000000000000000000 ) ) ;
#343 = ORIENTED_EDGE ( 'NONE', *, *, #115, .F. ) ;
#344 = CARTESIAN_POINT ( 'NONE',  ( 0.000000000000000000, 2.296212748401286801E-17, 0.1874999999999999722 ) ) ;
#345 = ORIENTED_EDGE ( 'NONE', *, *, #261, .T. ) ;
#346 = DIRECTION ( 'NONE',  ( -1.000000000000000000, -0.000000000000000000, -0.000000000000000000 ) ) ;
#347 = ORIENTED_EDGE ( 'NONE', *, *, #348, .F. ) ;
#348 = EDGE_CURVE ( 'NONE', #183, #351, #80, .T. ) ;
#349 = ORIENTED_EDGE ( 'NONE', *, *, #348, .T. ) ;
#350 = DIRECTION ( 'NONE',  ( 0.000000000000000000, 0.000000000000000000, 1.000000000000000000 ) ) ;
#351 = VERTEX_POINT ( 'NONE', #16 ) ;
#352 = CARTESIAN_POINT ( 'NONE',  ( -0.2500000000000000000, 0.000000000000000000, 0.000000000000000000 ) ) ;
#353 = CIRCLE ( 'NONE', #43, 0.2199999999995600197 ) ;
#354 = DIRECTION ( 'NONE',  ( 0.000000000000000000, 0.000000000000000000, 1.000000000000000000 ) ) ;
#355 = EDGE_LOOP ( 'NONE', ( #70, #117, #152, #313 ) ) ;
#356 = PLANE ( 'NONE',  #103 ) ;
#357 = ADVANCED_FACE ( 'NONE', ( #72 ), #264, .T. ) ;
#358 = STYLED_ITEM ( 'NONE', ( #173 ), #172 ) ;
#359 = AXIS2_PLACEMENT_3D ( 'NONE', #4, #287, #39 ) ;
#360 = CARTESIAN_POINT ( 'NONE',  ( 0.000000000000000000, 0.000000000000000000, 0.000000000000000000 ) ) ;
#361 = CARTESIAN_POINT ( 'NONE',  ( -1.999999999999255262, 0.000000000000000000, -1.639108796218122113E-17 ) ) ;
ENDSEC;
END-ISO-10303-21;
