ISO-10303-21;
HEADER;
FILE_DESCRIPTION (( 'STEP AP214' ),
    '1' );
FILE_NAME ('03-3394.STEP',
    '2025-07-09T15:21:01',
    ( '' ),
    ( '' ),
    'SwSTEP 2.0',
    'SolidWorks 2023',
    '' );
FILE_SCHEMA (( 'AUTOMOTIVE_DESIGN' ));
ENDSEC;

DATA;
#1 = DIRECTION ( 'NONE',  ( 0.000000000000000000, 0.000000000000000000, 1.000000000000000000 ) ) ;
#2 = EDGE_LOOP ( 'NONE', ( #221, #273 ) ) ;
#3 = FACE_OUTER_BOUND ( 'NONE', #357, .T. ) ;
#4 = ADVANCED_FACE ( 'NONE', ( #183 ), #185, .T. ) ;
#5 = CARTESIAN_POINT ( 'NONE',  ( -0.2500000000000000000, 0.000000000000000000, 0.000000000000000000 ) ) ;
#6 = DIRECTION ( 'NONE',  ( 1.000000000000000000, -0.000000000000000000, 5.463695987330561698E-16 ) ) ;
#7 = DIRECTION ( 'NONE',  ( -1.000000000000000000, 0.000000000000000000, 0.000000000000000000 ) ) ;
#8 = DIRECTION ( 'NONE',  ( 0.000000000000000000, 0.000000000000000000, 1.000000000000000000 ) ) ;
#9 = EDGE_LOOP ( 'NONE', ( #23, #276, #208, #331 ) ) ;
#10 = ADVANCED_FACE ( 'NONE', ( #131 ), #103, .T. ) ;
#11 = CONICAL_SURFACE ( 'NONE', #17, 0.2499999999999069078, 0.5235987755978991354 ) ;
#12 = VECTOR ( 'NONE', #99, 39.37007874015748143 ) ;
#13 = ORIENTED_EDGE ( 'NONE', *, *, #350, .F. ) ;
#14 =( NAMED_UNIT ( * ) SI_UNIT ( $, .STERADIAN. ) SOLID_ANGLE_UNIT ( ) );
#15 = EDGE_CURVE ( 'NONE', #224, #73, #100, .T. ) ;
#16 = DIRECTION ( 'NONE',  ( 0.000000000000000000, 0.000000000000000000, -1.000000000000000000 ) ) ;
#17 = AXIS2_PLACEMENT_3D ( 'NONE', #95, #338, #31 ) ;
#18 = DIRECTION ( 'NONE',  ( 0.000000000000000000, 0.000000000000000000, -1.000000000000000000 ) ) ;
#19 = CARTESIAN_POINT ( 'NONE',  ( -1.969999999998908402, 0.000000000000000000, 0.000000000000000000 ) ) ;
#20 = FACE_OUTER_BOUND ( 'NONE', #192, .T. ) ;
#21 = ORIENTED_EDGE ( 'NONE', *, *, #176, .T. ) ;
#22 = FACE_OUTER_BOUND ( 'NONE', #328, .T. ) ;
#23 = ORIENTED_EDGE ( 'NONE', *, *, #176, .F. ) ;
#24 = VERTEX_POINT ( 'NONE', #354 ) ;
#25 = CYLINDRICAL_SURFACE ( 'NONE', #122, 0.1015000000000000069 ) ;
#26 = ORIENTED_EDGE ( 'NONE', *, *, #28, .T. ) ;
#27 = FILL_AREA_STYLE_COLOUR ( '', #128 ) ;
#28 = EDGE_CURVE ( 'NONE', #93, #245, #32, .T. ) ;
#29 = CONICAL_SURFACE ( 'NONE', #233, 0.2499999999999069078, 0.7853981633974482790 ) ;
#30 = CARTESIAN_POINT ( 'NONE',  ( 0.000000000000000000, 1.243016501134563680E-17, -0.1015000000000000069 ) ) ;
#31 = DIRECTION ( 'NONE',  ( 0.000000000000000000, 0.000000000000000000, 1.000000000000000000 ) ) ;
#32 = CIRCLE ( 'NONE', #235, 0.2199999999995600197 ) ;
#33 = PRODUCT_CONTEXT ( 'NONE', #342, 'mechanical' ) ;
#34 = PLANE ( 'NONE',  #181 ) ;
#35 = CONICAL_SURFACE ( 'NONE', #348, 0.2499999999999069078, 0.7853981633974482790 ) ;
#36 = CARTESIAN_POINT ( 'NONE',  ( 0.09379999999999999449, 0.000000000000000000, 0.000000000000000000 ) ) ;
#37 = SHAPE_DEFINITION_REPRESENTATION ( #237, #80 ) ;
#38 = EDGE_CURVE ( 'NONE', #24, #253, #178, .T. ) ;
#39 = PRESENTATION_LAYER_ASSIGNMENT (  '', '', ( #121 ) ) ;
#40 = ADVANCED_FACE ( 'NONE', ( #20 ), #133, .T. ) ;
#41 = CIRCLE ( 'NONE', #207, 0.1874999999999999722 ) ;
#42 = SURFACE_SIDE_STYLE ('',( #295 ) ) ;
#43 = PLANE ( 'NONE',  #323 ) ;
#44 = CARTESIAN_POINT ( 'NONE',  ( -1.999999999999255262, 0.000000000000000000, -1.639108796218122113E-17 ) ) ;
#45 = DIRECTION ( 'NONE',  ( 0.000000000000000000, 0.000000000000000000, 1.000000000000000000 ) ) ;
#46 = DIRECTION ( 'NONE',  ( -0.8660254037846384367, 0.000000000000000000, 0.4999999999996537769 ) ) ;
#47 = ORIENTED_EDGE ( 'NONE', *, *, #92, .F. ) ;
#48 = CARTESIAN_POINT ( 'NONE',  ( -1.969999999999999973, 0.000000000000000000, 0.000000000000000000 ) ) ;
#49 = VERTEX_POINT ( 'NONE', #324 ) ;
#50 = ORIENTED_EDGE ( 'NONE', *, *, #87, .T. ) ;
#51 = DIRECTION ( 'NONE',  ( 0.000000000000000000, 0.000000000000000000, 1.000000000000000000 ) ) ;
#52 = ORIENTED_EDGE ( 'NONE', *, *, #317, .F. ) ;
#53 = EDGE_CURVE ( 'NONE', #253, #24, #98, .T. ) ;
#54 = DIRECTION ( 'NONE',  ( -1.000000000000000000, 0.000000000000000000, 0.000000000000000000 ) ) ;
#55 = PRODUCT_DEFINITION_CONTEXT ( 'detailed design', #125, 'design' ) ;
#56 = CARTESIAN_POINT ( 'NONE',  ( -1.969999999998908624, 3.061616997867242867E-17, 0.2499999999999069078 ) ) ;
#57 = DIRECTION ( 'NONE',  ( -1.000000000000000000, -0.000000000000000000, -0.000000000000000000 ) ) ;
#58 = CIRCLE ( 'NONE', #311, 0.2199999999995600197 ) ;
#59 = VECTOR ( 'NONE', #160, 39.37007874015748854 ) ;
#60 = DIRECTION ( 'NONE',  ( 0.000000000000000000, 0.000000000000000000, 1.000000000000000000 ) ) ;
#61 = DIRECTION ( 'NONE',  ( 0.000000000000000000, 0.000000000000000000, 1.000000000000000000 ) ) ;
#62 = ADVANCED_FACE ( 'NONE', ( #247 ), #29, .T. ) ;
#63 = DIRECTION ( 'NONE',  ( 1.092739197466112142E-15, 0.000000000000000000, -1.000000000000000000 ) ) ;
#64 = ORIENTED_EDGE ( 'NONE', *, *, #38, .T. ) ;
#65 = APPLICATION_PROTOCOL_DEFINITION ( 'draft international standard', 'automotive_design', 1998, #125 ) ;
#66 = ADVANCED_FACE ( 'NONE', ( #105 ), #140, .T. ) ;
#67 = EDGE_CURVE ( 'NONE', #246, #289, #352, .T. ) ;
#68 = VECTOR ( 'NONE', #46, 39.37007874015748854 ) ;
#69 = CARTESIAN_POINT ( 'NONE',  ( -0.5071999999980172369, 3.061616997867242867E-17, -0.2499999999999069078 ) ) ;
#70 = AXIS2_PLACEMENT_3D ( 'NONE', #85, #7, #200 ) ;
#71 = CARTESIAN_POINT ( 'NONE',  ( -0.5071999999999999842, 0.000000000000000000, 0.000000000000000000 ) ) ;
#72 = CARTESIAN_POINT ( 'NONE',  ( 0.000000000000000000, 0.000000000000000000, 0.000000000000000000 ) ) ;
#73 = VERTEX_POINT ( 'NONE', #332 ) ;
#74 = DIRECTION ( 'NONE',  ( 1.000000000000000000, -0.000000000000000000, -0.000000000000000000 ) ) ;
#75 = ORIENTED_EDGE ( 'NONE', *, *, #67, .F. ) ;
#76 = ORIENTED_EDGE ( 'NONE', *, *, #262, .T. ) ;
#77 = ORIENTED_EDGE ( 'NONE', *, *, #166, .F. ) ;
#78 = DIRECTION ( 'NONE',  ( 0.000000000000000000, 0.000000000000000000, 1.000000000000000000 ) ) ;
#79 = ORIENTED_EDGE ( 'NONE', *, *, #317, .T. ) ;
#80 = ADVANCED_BREP_SHAPE_REPRESENTATION ( '03-3394', ( #175, #111 ), #260 ) ;
#81 = CARTESIAN_POINT ( 'NONE',  ( -0.2499904550739627529, 0.000000000000000000, 0.000000000000000000 ) ) ;
#82 = CARTESIAN_POINT ( 'NONE',  ( -0.5071999999980172369, 0.000000000000000000, 0.000000000000000000 ) ) ;
#83 = EDGE_LOOP ( 'NONE', ( #158, #52 ) ) ;
#84 = DIRECTION ( 'NONE',  ( 0.000000000000000000, 0.000000000000000000, -1.000000000000000000 ) ) ;
#85 = CARTESIAN_POINT ( 'NONE',  ( 0.000000000000000000, 0.000000000000000000, 0.000000000000000000 ) ) ;
#86 = CARTESIAN_POINT ( 'NONE',  ( -1.969999999999999973, 3.061616997853877222E-17, 0.2499999999988155308 ) ) ;
#87 = EDGE_CURVE ( 'NONE', #304, #248, #314, .T. ) ;
#88 = AXIS2_PLACEMENT_3D ( 'NONE', #201, #281, #61 ) ;
#89 = VECTOR ( 'NONE', #130, 39.37007874015748143 ) ;
#90 = LINE ( 'NONE', #30, #270 ) ;
#91 =( NAMED_UNIT ( * ) SI_UNIT ( $, .STERADIAN. ) SOLID_ANGLE_UNIT ( ) );
#92 = EDGE_CURVE ( 'NONE', #24, #333, #268, .T. ) ;
#93 = VERTEX_POINT ( 'NONE', #274 ) ;
#94 = UNCERTAINTY_MEASURE_WITH_UNIT (LENGTH_MEASURE( 1.000000000000000082E-05 ), #226, 'distance_accuracy_value', 'NONE');
#95 = CARTESIAN_POINT ( 'NONE',  ( -0.5071999999980172369, 0.000000000000000000, 0.000000000000000000 ) ) ;
#96 = DIRECTION ( 'NONE',  ( 1.000000000000000000, 0.000000000000000000, 0.000000000000000000 ) ) ;
#97 = EDGE_CURVE ( 'NONE', #358, #161, #157, .T. ) ;
#98 = CIRCLE ( 'NONE', #177, 0.1874999999999999722 ) ;
#99 = DIRECTION ( 'NONE',  ( 1.000000000000000000, 0.000000000000000000, 0.000000000000000000 ) ) ;
#100 = LINE ( 'NONE', #272, #68 ) ;
#101 = ORIENTED_EDGE ( 'NONE', *, *, #266, .T. ) ;
#102 = DIRECTION ( 'NONE',  ( -1.000000000000000000, 0.000000000000000000, 0.000000000000000000 ) ) ;
#103 = PLANE ( 'NONE',  #346 ) ;
#104 = EDGE_LOOP ( 'NONE', ( #134, #186, #147, #216 ) ) ;
#105 = FACE_OUTER_BOUND ( 'NONE', #172, .T. ) ;
#106 = ORIENTED_EDGE ( 'NONE', *, *, #206, .T. ) ;
#107 = FILL_AREA_STYLE ('',( #27 ) ) ;
#108 = DIRECTION ( 'NONE',  ( 0.000000000000000000, 0.000000000000000000, 1.000000000000000000 ) ) ;
#109 = EDGE_LOOP ( 'NONE', ( #123, #360, #361, #13 ) ) ;
#110 = CARTESIAN_POINT ( 'NONE',  ( -1.969999999998908180, 0.000000000000000000, -0.2499999999999069078 ) ) ;
#111 = AXIS2_PLACEMENT_3D ( 'NONE', #310, #195, #288 ) ;
#112 = CARTESIAN_POINT ( 'NONE',  ( -1.969999999999999973, 0.000000000000000000, 0.000000000000000000 ) ) ;
#113 = ADVANCED_FACE ( 'NONE', ( #22 ), #277, .T. ) ;
#114 = DIRECTION ( 'NONE',  ( -1.000000000000000000, 0.000000000000000000, 0.000000000000000000 ) ) ;
#115 = DIRECTION ( 'NONE',  ( -1.000000000000000000, 0.000000000000000000, 0.000000000000000000 ) ) ;
#116 = DIRECTION ( 'NONE',  ( 1.000000000000000000, -0.000000000000000000, 5.463695987330561698E-16 ) ) ;
#117 = CYLINDRICAL_SURFACE ( 'NONE', #124, 0.2500000000000000000 ) ;
#118 = AXIS2_PLACEMENT_3D ( 'NONE', #5, #114, #60 ) ;
#119 = ORIENTED_EDGE ( 'NONE', *, *, #336, .T. ) ;
#120 = ADVANCED_FACE ( 'NONE', ( #184 ), #25, .T. ) ;
#121 = STYLED_ITEM ( 'NONE', ( #162 ), #175 ) ;
#122 = AXIS2_PLACEMENT_3D ( 'NONE', #154, #329, #51 ) ;
#123 = ORIENTED_EDGE ( 'NONE', *, *, #290, .F. ) ;
#124 = AXIS2_PLACEMENT_3D ( 'NONE', #196, #204, #230 ) ;
#125 = APPLICATION_CONTEXT ( 'automotive_design' ) ;
#126 = LENGTH_MEASURE_WITH_UNIT ( LENGTH_MEASURE( 0.02539999999999999897 ), #222 );
#127 = DIRECTION ( 'NONE',  ( 0.000000000000000000, 0.000000000000000000, 1.000000000000000000 ) ) ;
#128 = COLOUR_RGB ( '',0.6274509803921568540, 0.6274509803921568540, 0.6274509803921568540 ) ;
#129 = DIRECTION ( 'NONE',  ( 0.000000000000000000, 0.000000000000000000, -1.000000000000000000 ) ) ;
#130 = DIRECTION ( 'NONE',  ( 1.000000000000000000, 0.000000000000000000, 0.000000000000000000 ) ) ;
#131 = FACE_OUTER_BOUND ( 'NONE', #83, .T. ) ;
#132 = ORIENTED_EDGE ( 'NONE', *, *, #53, .F. ) ;
#133 = CYLINDRICAL_SURFACE ( 'NONE', #150, 0.1015000000000000069 ) ;
#134 = ORIENTED_EDGE ( 'NONE', *, *, #97, .F. ) ;
#135 = ORIENTED_EDGE ( 'NONE', *, *, #262, .F. ) ;
#136 = DIRECTION ( 'NONE',  ( 0.000000000000000000, 0.000000000000000000, -1.000000000000000000 ) ) ;
#137 = EDGE_LOOP ( 'NONE', ( #278, #26, #316, #75 ) ) ;
#138 =( CONVERSION_BASED_UNIT ( 'INCH', #126 ) LENGTH_UNIT ( ) NAMED_UNIT ( #251 ) );
#139 = ADVANCED_FACE ( 'NONE', ( #297, #244 ), #43, .F. ) ;
#140 = CONICAL_SURFACE ( 'NONE', #242, 0.2499999999999069078, 0.5235987755978991354 ) ;
#141 = FACE_OUTER_BOUND ( 'NONE', #2, .T. ) ;
#142 = CARTESIAN_POINT ( 'NONE',  ( -0.2499904550739627529, 0.000000000000000000, 0.1015000000000000069 ) ) ;
#143 = AXIS2_PLACEMENT_3D ( 'NONE', #72, #269, #18 ) ;
#144 = CIRCLE ( 'NONE', #70, 0.1015000000000000069 ) ;
#145 = CARTESIAN_POINT ( 'NONE',  ( -2.000000000000000000, 0.000000000000000000, 0.000000000000000000 ) ) ;
#146 = CARTESIAN_POINT ( 'NONE',  ( 0.000000000000000000, 0.000000000000000000, 0.1015000000000000069 ) ) ;
#147 = ORIENTED_EDGE ( 'NONE', *, *, #15, .T. ) ;
#148 = VECTOR ( 'NONE', #115, 39.37007874015748143 ) ;
#149 = EDGE_CURVE ( 'NONE', #161, #73, #292, .T. ) ;
#150 = AXIS2_PLACEMENT_3D ( 'NONE', #223, #152, #108 ) ;
#151 = SURFACE_STYLE_USAGE ( .BOTH. , #42 ) ;
#152 = DIRECTION ( 'NONE',  ( -1.000000000000000000, 0.000000000000000000, 0.000000000000000000 ) ) ;
#153 = DIRECTION ( 'NONE',  ( 1.000000000000000000, 0.000000000000000000, 0.000000000000000000 ) ) ;
#154 = CARTESIAN_POINT ( 'NONE',  ( 0.000000000000000000, 0.000000000000000000, 0.000000000000000000 ) ) ;
#155 = CARTESIAN_POINT ( 'NONE',  ( 0.000000000000000000, 0.000000000000000000, 0.000000000000000000 ) ) ;
#156 = ORIENTED_EDGE ( 'NONE', *, *, #15, .F. ) ;
#157 = LINE ( 'NONE', #69, #59 ) ;
#158 = ORIENTED_EDGE ( 'NONE', *, *, #266, .F. ) ;
#159 = ORIENTED_EDGE ( 'NONE', *, *, #87, .F. ) ;
#160 = DIRECTION ( 'NONE',  ( -0.8660254037846384367, 6.123233995732525909E-17, -0.4999999999996537769 ) ) ;
#161 = VERTEX_POINT ( 'NONE', #353 ) ;
#162 = PRESENTATION_STYLE_ASSIGNMENT (( #151 ) ) ;
#163 = CARTESIAN_POINT ( 'NONE',  ( -0.2499904550739627529, 1.243016501134563680E-17, -0.1015000000000000069 ) ) ;
#164 = DIRECTION ( 'NONE',  ( -1.000000000000000000, -0.000000000000000000, -0.000000000000000000 ) ) ;
#165 = CARTESIAN_POINT ( 'NONE',  ( -1.999999999999255262, 0.000000000000000000, -1.639108796218122113E-17 ) ) ;
#166 = EDGE_CURVE ( 'NONE', #253, #49, #305, .T. ) ;
#167 = AXIS2_PLACEMENT_3D ( 'NONE', #71, #220, #127 ) ;
#168 = CARTESIAN_POINT ( 'NONE',  ( -1.969999999999999973, 0.000000000000000000, -0.2499999999988150035 ) ) ;
#169 = CARTESIAN_POINT ( 'NONE',  ( -1.999999999999255262, 0.000000000000000000, -0.2199999999995600197 ) ) ;
#170 = AXIS2_PLACEMENT_3D ( 'NONE', #81, #315, #8 ) ;
#171 =( LENGTH_UNIT ( ) NAMED_UNIT ( * ) SI_UNIT ( $, .METRE. ) );
#172 = EDGE_LOOP ( 'NONE', ( #76, #306, #219, #156 ) ) ;
#173 = EDGE_CURVE ( 'NONE', #73, #161, #212, .T. ) ;
#174 = CIRCLE ( 'NONE', #231, 0.1874999999999999722 ) ;
#175 = MANIFOLD_SOLID_BREP ( 'Body1', #293 ) ;
#176 = EDGE_CURVE ( 'NONE', #161, #289, #334, .T. ) ;
#177 = AXIS2_PLACEMENT_3D ( 'NONE', #180, #96, #16 ) ;
#178 = CIRCLE ( 'NONE', #257, 0.1874999999999999722 ) ;
#179 =( NAMED_UNIT ( * ) PLANE_ANGLE_UNIT ( ) SI_UNIT ( $, .RADIAN. ) );
#180 = CARTESIAN_POINT ( 'NONE',  ( 0.000000000000000000, 0.000000000000000000, 0.000000000000000000 ) ) ;
#181 = AXIS2_PLACEMENT_3D ( 'NONE', #145, #227, #258 ) ;
#182 = ADVANCED_FACE ( 'NONE', ( #238 ), #11, .T. ) ;
#183 = FACE_OUTER_BOUND ( 'NONE', #188, .T. ) ;
#184 = FACE_OUTER_BOUND ( 'NONE', #109, .T. ) ;
#185 = CYLINDRICAL_SURFACE ( 'NONE', #143, 0.1874999999999999722 ) ;
#186 = ORIENTED_EDGE ( 'NONE', *, *, #350, .T. ) ;
#187 = CARTESIAN_POINT ( 'NONE',  ( 0.000000000000000000, 0.000000000000000000, 0.000000000000000000 ) ) ;
#188 = EDGE_LOOP ( 'NONE', ( #77, #300, #320, #101 ) ) ;
#189 = ORIENTED_EDGE ( 'NONE', *, *, #249, .F. ) ;
#190 = ORIENTED_EDGE ( 'NONE', *, *, #211, .F. ) ;
#191 = CARTESIAN_POINT ( 'NONE',  ( 0.000000000000000000, 2.296212748401286801E-17, 0.1874999999999999722 ) ) ;
#192 = EDGE_LOOP ( 'NONE', ( #50, #301, #135, #190 ) ) ;
#193 = DIMENSIONAL_EXPONENTS ( 1.000000000000000000, 0.000000000000000000, 0.000000000000000000, 0.000000000000000000, 0.000000000000000000, 0.000000000000000000, 0.000000000000000000 ) ;
#194 = CARTESIAN_POINT ( 'NONE',  ( -0.2500000000000000000, 3.061616997868383018E-17, -0.2500000000000000000 ) ) ;
#195 = DIRECTION ( 'NONE',  ( 0.000000000000000000, 0.000000000000000000, 1.000000000000000000 ) ) ;
#196 = CARTESIAN_POINT ( 'NONE',  ( -0.2500000000000000000, 0.000000000000000000, 0.000000000000000000 ) ) ;
#197 = DIRECTION ( 'NONE',  ( -1.000000000000000000, 0.000000000000000000, 0.000000000000000000 ) ) ;
#198 = PRODUCT_RELATED_PRODUCT_CATEGORY ( 'part', '', ( #214 ) ) ;
#199 = DIRECTION ( 'NONE',  ( 1.000000000000000000, -0.000000000000000000, -0.000000000000000000 ) ) ;
#200 = DIRECTION ( 'NONE',  ( 0.000000000000000000, 0.000000000000000000, 1.000000000000000000 ) ) ;
#201 = CARTESIAN_POINT ( 'NONE',  ( -0.2499904550739627529, 0.000000000000000000, 0.000000000000000000 ) ) ;
#202 = CIRCLE ( 'NONE', #88, 0.1015000000000000069 ) ;
#203 = AXIS2_PLACEMENT_3D ( 'NONE', #326, #271, #78 ) ;
#204 = DIRECTION ( 'NONE',  ( -1.000000000000000000, 0.000000000000000000, 0.000000000000000000 ) ) ;
#205 = CARTESIAN_POINT ( 'NONE',  ( -1.969999999998908402, 0.000000000000000000, 0.000000000000000000 ) ) ;
#206 = EDGE_CURVE ( 'NONE', #245, #93, #58, .T. ) ;
#207 = AXIS2_PLACEMENT_3D ( 'NONE', #340, #164, #280 ) ;
#208 = ORIENTED_EDGE ( 'NONE', *, *, #239, .T. ) ;
#209 =( GEOMETRIC_REPRESENTATION_CONTEXT ( 3 ) GLOBAL_UNCERTAINTY_ASSIGNED_CONTEXT ( ( #325 ) ) GLOBAL_UNIT_ASSIGNED_CONTEXT ( ( #138, #179, #14 ) ) REPRESENTATION_CONTEXT ( 'NONE', 'WORKASPACE' ) );
#210 = CARTESIAN_POINT ( 'NONE',  ( 0.000000000000000000, 0.000000000000000000, -0.1874999999999999722 ) ) ;
#211 = EDGE_CURVE ( 'NONE', #304, #224, #228, .T. ) ;
#212 = CIRCLE ( 'NONE', #291, 0.2500000000000000000 ) ;
#213 = DIRECTION ( 'NONE',  ( 1.000000000000000000, 0.000000000000000000, 0.000000000000000000 ) ) ;
#214 = PRODUCT ( '03-3394', '03-3394', '', ( #33 ) ) ;
#215 = CARTESIAN_POINT ( 'NONE',  ( 0.09379999999999999449, 0.000000000000000000, 0.000000000000000000 ) ) ;
#216 = ORIENTED_EDGE ( 'NONE', *, *, #149, .F. ) ;
#217 = DIRECTION ( 'NONE',  ( 1.000000000000000000, -0.000000000000000000, 5.463695987330561698E-16 ) ) ;
#218 = DIRECTION ( 'NONE',  ( 1.000000000000000000, -0.000000000000000000, 5.463695987330561698E-16 ) ) ;
#219 = ORIENTED_EDGE ( 'NONE', *, *, #173, .F. ) ;
#220 = DIRECTION ( 'NONE',  ( -1.000000000000000000, 0.000000000000000000, 0.000000000000000000 ) ) ;
#221 = ORIENTED_EDGE ( 'NONE', *, *, #206, .F. ) ;
#222 =( LENGTH_UNIT ( ) NAMED_UNIT ( * ) SI_UNIT ( $, .METRE. ) );
#223 = CARTESIAN_POINT ( 'NONE',  ( 0.000000000000000000, 0.000000000000000000, 0.000000000000000000 ) ) ;
#224 = VERTEX_POINT ( 'NONE', #142 ) ;
#225 = CYLINDRICAL_SURFACE ( 'NONE', #118, 0.2500000000000000000 ) ;
#226 =( CONVERSION_BASED_UNIT ( 'INCH', #279 ) LENGTH_UNIT ( ) NAMED_UNIT ( #193 ) );
#227 = DIRECTION ( 'NONE',  ( -1.000000000000000000, 0.000000000000000000, 0.000000000000000000 ) ) ;
#228 = LINE ( 'NONE', #146, #148 ) ;
#229 = DIRECTION ( 'NONE',  ( 0.000000000000000000, 0.000000000000000000, 1.000000000000000000 ) ) ;
#230 = DIRECTION ( 'NONE',  ( 0.000000000000000000, 0.000000000000000000, 1.000000000000000000 ) ) ;
#231 = AXIS2_PLACEMENT_3D ( 'NONE', #36, #57, #264 ) ;
#232 = FACE_OUTER_BOUND ( 'NONE', #137, .T. ) ;
#233 = AXIS2_PLACEMENT_3D ( 'NONE', #19, #217, #335 ) ;
#234 = PRODUCT_DEFINITION ( 'UNKNOWN', '', #267, #55 ) ;
#235 = AXIS2_PLACEMENT_3D ( 'NONE', #44, #218, #129 ) ;
#236 = CIRCLE ( 'NONE', #170, 0.1015000000000000069 ) ;
#237 = PRODUCT_DEFINITION_SHAPE ( 'NONE', 'NONE',  #234 ) ;
#238 = FACE_OUTER_BOUND ( 'NONE', #104, .T. ) ;
#239 = EDGE_CURVE ( 'NONE', #73, #246, #341, .T. ) ;
#240 = MECHANICAL_DESIGN_GEOMETRIC_PRESENTATION_REPRESENTATION (  '', ( #121 ), #209 ) ;
#241 = CARTESIAN_POINT ( 'NONE',  ( 0.000000000000000000, 0.000000000000000000, 0.000000000000000000 ) ) ;
#242 = AXIS2_PLACEMENT_3D ( 'NONE', #82, #102, #45 ) ;
#243 = DIRECTION ( 'NONE',  ( 0.000000000000000000, 0.000000000000000000, -1.000000000000000000 ) ) ;
#244 = FACE_OUTER_BOUND ( 'NONE', #275, .T. ) ;
#245 = VERTEX_POINT ( 'NONE', #169 ) ;
#246 = VERTEX_POINT ( 'NONE', #86 ) ;
#247 = FACE_OUTER_BOUND ( 'NONE', #345, .T. ) ;
#248 = VERTEX_POINT ( 'NONE', #313 ) ;
#249 = EDGE_CURVE ( 'NONE', #245, #289, #308, .T. ) ;
#250 = EDGE_LOOP ( 'NONE', ( #159, #330 ) ) ;
#251 = DIMENSIONAL_EXPONENTS ( 1.000000000000000000, 0.000000000000000000, 0.000000000000000000, 0.000000000000000000, 0.000000000000000000, 0.000000000000000000, 0.000000000000000000 ) ;
#252 = DIRECTION ( 'NONE',  ( -1.000000000000000000, 0.000000000000000000, 0.000000000000000000 ) ) ;
#253 = VERTEX_POINT ( 'NONE', #285 ) ;
#254 = DIRECTION ( 'NONE',  ( 0.7071067811865479058, 0.000000000000000000, -0.7071067811865472397 ) ) ;
#255 = AXIS2_PLACEMENT_3D ( 'NONE', #241, #359, #136 ) ;
#256 =( NAMED_UNIT ( * ) PLANE_ANGLE_UNIT ( ) SI_UNIT ( $, .RADIAN. ) );
#257 = AXIS2_PLACEMENT_3D ( 'NONE', #155, #153, #243 ) ;
#258 = DIRECTION ( 'NONE',  ( 0.000000000000000000, 0.000000000000000000, 1.000000000000000000 ) ) ;
#259 = CARTESIAN_POINT ( 'NONE',  ( -0.2500000000000000000, 0.000000000000000000, 0.2500000000000000000 ) ) ;
#260 =( GEOMETRIC_REPRESENTATION_CONTEXT ( 3 ) GLOBAL_UNCERTAINTY_ASSIGNED_CONTEXT ( ( #94 ) ) GLOBAL_UNIT_ASSIGNED_CONTEXT ( ( #226, #256, #91 ) ) REPRESENTATION_CONTEXT ( 'NONE', 'WORKASPACE' ) );
#261 = CARTESIAN_POINT ( 'NONE',  ( 0.09379999999999999449, 0.000000000000000000, -0.1874999999999999722 ) ) ;
#262 = EDGE_CURVE ( 'NONE', #224, #358, #202, .T. ) ;
#263 = FACE_OUTER_BOUND ( 'NONE', #9, .T. ) ;
#264 = DIRECTION ( 'NONE',  ( 0.000000000000000000, 0.000000000000000000, -1.000000000000000000 ) ) ;
#265 = ORIENTED_EDGE ( 'NONE', *, *, #239, .F. ) ;
#266 = EDGE_CURVE ( 'NONE', #333, #49, #174, .T. ) ;
#267 = PRODUCT_DEFINITION_FORMATION_WITH_SPECIFIED_SOURCE ( 'ANY', '', #214, .NOT_KNOWN. ) ;
#268 = LINE ( 'NONE', #210, #89 ) ;
#269 = DIRECTION ( 'NONE',  ( 1.000000000000000000, 0.000000000000000000, 0.000000000000000000 ) ) ;
#270 = VECTOR ( 'NONE', #312, 39.37007874015748143 ) ;
#271 = DIRECTION ( 'NONE',  ( -1.000000000000000000, 0.000000000000000000, 0.000000000000000000 ) ) ;
#272 = CARTESIAN_POINT ( 'NONE',  ( -0.5071999999980172369, 0.000000000000000000, 0.2499999999999069078 ) ) ;
#273 = ORIENTED_EDGE ( 'NONE', *, *, #28, .F. ) ;
#274 = CARTESIAN_POINT ( 'NONE',  ( -1.999999999999255262, 2.877919977993585991E-17, 0.2199999999995600197 ) ) ;
#275 = EDGE_LOOP ( 'NONE', ( #355, #132 ) ) ;
#276 = ORIENTED_EDGE ( 'NONE', *, *, #149, .T. ) ;
#277 = CYLINDRICAL_SURFACE ( 'NONE', #255, 0.1874999999999999722 ) ;
#278 = ORIENTED_EDGE ( 'NONE', *, *, #309, .F. ) ;
#279 = LENGTH_MEASURE_WITH_UNIT ( LENGTH_MEASURE( 0.02539999999999999897 ), #171 );
#280 = DIRECTION ( 'NONE',  ( 0.000000000000000000, 0.000000000000000000, -1.000000000000000000 ) ) ;
#281 = DIRECTION ( 'NONE',  ( -1.000000000000000000, 0.000000000000000000, 0.000000000000000000 ) ) ;
#282 = AXIS2_PLACEMENT_3D ( 'NONE', #48, #74, #356 ) ;
#283 = ADVANCED_FACE ( 'NONE', ( #3 ), #225, .T. ) ;
#284 = DIRECTION ( 'NONE',  ( 0.7071067811865472397, 8.659560562354934091E-17, 0.7071067811865479058 ) ) ;
#285 = CARTESIAN_POINT ( 'NONE',  ( 0.000000000000000000, 2.296212748401286801E-17, 0.1874999999999999722 ) ) ;
#286 = AXIS2_PLACEMENT_3D ( 'NONE', #112, #199, #229 ) ;
#287 = ORIENTED_EDGE ( 'NONE', *, *, #309, .T. ) ;
#288 = DIRECTION ( 'NONE',  ( 1.000000000000000000, 0.000000000000000000, 0.000000000000000000 ) ) ;
#289 = VERTEX_POINT ( 'NONE', #168 ) ;
#290 = EDGE_CURVE ( 'NONE', #248, #358, #90, .T. ) ;
#291 = AXIS2_PLACEMENT_3D ( 'NONE', #302, #252, #1 ) ;
#292 = CIRCLE ( 'NONE', #167, 0.2500000000000000000 ) ;
#293 = CLOSED_SHELL ( 'NONE', ( #283, #66, #62, #40, #113, #294, #182, #347, #120, #319, #139, #4, #10 ) ) ;
#294 = ADVANCED_FACE ( 'NONE', ( #263 ), #117, .T. ) ;
#295 = SURFACE_STYLE_FILL_AREA ( #107 ) ;
#296 = VECTOR ( 'NONE', #284, 39.37007874015748143 ) ;
#297 = FACE_BOUND ( 'NONE', #250, .T. ) ;
#298 = DIRECTION ( 'NONE',  ( 1.000000000000000000, 0.000000000000000000, 0.000000000000000000 ) ) ;
#299 = DIRECTION ( 'NONE',  ( 0.000000000000000000, 0.000000000000000000, -1.000000000000000000 ) ) ;
#300 = ORIENTED_EDGE ( 'NONE', *, *, #53, .T. ) ;
#301 = ORIENTED_EDGE ( 'NONE', *, *, #290, .T. ) ;
#302 = CARTESIAN_POINT ( 'NONE',  ( -0.5071999999999999842, 0.000000000000000000, 0.000000000000000000 ) ) ;
#303 = ORIENTED_EDGE ( 'NONE', *, *, #173, .T. ) ;
#304 = VERTEX_POINT ( 'NONE', #344 ) ;
#305 = LINE ( 'NONE', #191, #12 ) ;
#306 = ORIENTED_EDGE ( 'NONE', *, *, #97, .T. ) ;
#307 = LINE ( 'NONE', #56, #296 ) ;
#308 = LINE ( 'NONE', #110, #321 ) ;
#309 = EDGE_CURVE ( 'NONE', #93, #246, #307, .T. ) ;
#310 = CARTESIAN_POINT ( 'NONE',  ( 0.000000000000000000, 0.000000000000000000, 0.000000000000000000 ) ) ;
#311 = AXIS2_PLACEMENT_3D ( 'NONE', #165, #6, #84 ) ;
#312 = DIRECTION ( 'NONE',  ( -1.000000000000000000, 0.000000000000000000, 0.000000000000000000 ) ) ;
#313 = CARTESIAN_POINT ( 'NONE',  ( 0.000000000000000000, 1.243016501134563680E-17, -0.1015000000000000069 ) ) ;
#314 = CIRCLE ( 'NONE', #203, 0.1015000000000000069 ) ;
#315 = DIRECTION ( 'NONE',  ( -1.000000000000000000, 0.000000000000000000, 0.000000000000000000 ) ) ;
#316 = ORIENTED_EDGE ( 'NONE', *, *, #249, .T. ) ;
#317 = EDGE_CURVE ( 'NONE', #49, #333, #41, .T. ) ;
#318 = CIRCLE ( 'NONE', #286, 0.2500000000000000000 ) ;
#319 = ADVANCED_FACE ( 'NONE', ( #141 ), #34, .T. ) ;
#320 = ORIENTED_EDGE ( 'NONE', *, *, #92, .T. ) ;
#321 = VECTOR ( 'NONE', #254, 39.37007874015748143 ) ;
#322 = EDGE_CURVE ( 'NONE', #248, #304, #144, .T. ) ;
#323 = AXIS2_PLACEMENT_3D ( 'NONE', #187, #213, #299 ) ;
#324 = CARTESIAN_POINT ( 'NONE',  ( 0.09379999999999999449, 2.296212748401286801E-17, 0.1874999999999999722 ) ) ;
#325 = UNCERTAINTY_MEASURE_WITH_UNIT (LENGTH_MEASURE( 1.000000000000000082E-05 ), #138, 'distance_accuracy_value', 'NONE');
#326 = CARTESIAN_POINT ( 'NONE',  ( 0.000000000000000000, 0.000000000000000000, 0.000000000000000000 ) ) ;
#327 = DIRECTION ( 'NONE',  ( 0.000000000000000000, 0.000000000000000000, -1.000000000000000000 ) ) ;
#328 = EDGE_LOOP ( 'NONE', ( #64, #349, #79, #47 ) ) ;
#329 = DIRECTION ( 'NONE',  ( -1.000000000000000000, 0.000000000000000000, 0.000000000000000000 ) ) ;
#330 = ORIENTED_EDGE ( 'NONE', *, *, #322, .F. ) ;
#331 = ORIENTED_EDGE ( 'NONE', *, *, #67, .T. ) ;
#332 = CARTESIAN_POINT ( 'NONE',  ( -0.5071999999999999842, 0.000000000000000000, 0.2500000000010516588 ) ) ;
#333 = VERTEX_POINT ( 'NONE', #261 ) ;
#334 = LINE ( 'NONE', #194, #343 ) ;
#335 = DIRECTION ( 'NONE',  ( 1.092739197466112142E-15, 0.000000000000000000, -1.000000000000000000 ) ) ;
#336 = EDGE_CURVE ( 'NONE', #289, #246, #318, .T. ) ;
#337 = ORIENTED_EDGE ( 'NONE', *, *, #336, .F. ) ;
#338 = DIRECTION ( 'NONE',  ( -1.000000000000000000, 0.000000000000000000, 0.000000000000000000 ) ) ;
#339 = APPLICATION_PROTOCOL_DEFINITION ( 'draft international standard', 'automotive_design', 1998, #342 ) ;
#340 = CARTESIAN_POINT ( 'NONE',  ( 0.09379999999999999449, 0.000000000000000000, 0.000000000000000000 ) ) ;
#341 = LINE ( 'NONE', #259, #351 ) ;
#342 = APPLICATION_CONTEXT ( 'automotive_design' ) ;
#343 = VECTOR ( 'NONE', #54, 39.37007874015748143 ) ;
#344 = CARTESIAN_POINT ( 'NONE',  ( 0.000000000000000000, 0.000000000000000000, 0.1015000000000000069 ) ) ;
#345 = EDGE_LOOP ( 'NONE', ( #106, #287, #337, #189 ) ) ;
#346 = AXIS2_PLACEMENT_3D ( 'NONE', #215, #298, #327 ) ;
#347 = ADVANCED_FACE ( 'NONE', ( #232 ), #35, .T. ) ;
#348 = AXIS2_PLACEMENT_3D ( 'NONE', #205, #116, #63 ) ;
#349 = ORIENTED_EDGE ( 'NONE', *, *, #166, .T. ) ;
#350 = EDGE_CURVE ( 'NONE', #358, #224, #236, .T. ) ;
#351 = VECTOR ( 'NONE', #197, 39.37007874015748143 ) ;
#352 = CIRCLE ( 'NONE', #282, 0.2500000000000000000 ) ;
#353 = CARTESIAN_POINT ( 'NONE',  ( -0.5071999999999999842, 3.061616997881261789E-17, -0.2500000000010516588 ) ) ;
#354 = CARTESIAN_POINT ( 'NONE',  ( 0.000000000000000000, 0.000000000000000000, -0.1874999999999999722 ) ) ;
#355 = ORIENTED_EDGE ( 'NONE', *, *, #38, .F. ) ;
#356 = DIRECTION ( 'NONE',  ( 0.000000000000000000, 0.000000000000000000, 1.000000000000000000 ) ) ;
#357 = EDGE_LOOP ( 'NONE', ( #303, #21, #119, #265 ) ) ;
#358 = VERTEX_POINT ( 'NONE', #163 ) ;
#359 = DIRECTION ( 'NONE',  ( 1.000000000000000000, 0.000000000000000000, 0.000000000000000000 ) ) ;
#360 = ORIENTED_EDGE ( 'NONE', *, *, #322, .T. ) ;
#361 = ORIENTED_EDGE ( 'NONE', *, *, #211, .T. ) ;
ENDSEC;
END-ISO-10303-21;
