ISO-10303-21;
HEADER;
FILE_DESCRIPTION (( 'STEP AP214' ),
    '1' );
FILE_NAME ('03-3395.STEP',
    '2025-07-09T15:21:43',
    ( '' ),
    ( '' ),
    'SwSTEP 2.0',
    'SolidWorks 2023',
    '' );
FILE_SCHEMA (( 'AUTOMOTIVE_DESIGN' ));
ENDSEC;

DATA;
#1 = ORIENTED_EDGE ( 'NONE', *, *, #126, .F. ) ;
#2 = CIRCLE ( 'NONE', #187, 0.1874999999999999722 ) ;
#3 = DIRECTION ( 'NONE',  ( 0.7071067811865472397, 8.659560562354934091E-17, 0.7071067811865479058 ) ) ;
#4 = ORIENTED_EDGE ( 'NONE', *, *, #327, .F. ) ;
#5 = DIRECTION ( 'NONE',  ( 1.000000000000000000, 0.000000000000000000, 0.000000000000000000 ) ) ;
#6 = ORIENTED_EDGE ( 'NONE', *, *, #52, .F. ) ;
#7 = DIRECTION ( 'NONE',  ( 1.000000000000000000, -0.000000000000000000, 5.463695987330561698E-16 ) ) ;
#8 = CARTESIAN_POINT ( 'NONE',  ( 0.1250000000000000000, 2.296212748401286801E-17, 0.1874999999999999722 ) ) ;
#9 = ADVANCED_FACE ( 'NONE', ( #316 ), #33, .T. ) ;
#10 = AXIS2_PLACEMENT_3D ( 'NONE', #51, #16, #264 ) ;
#11 = FACE_OUTER_BOUND ( 'NONE', #288, .T. ) ;
#12 = FACE_OUTER_BOUND ( 'NONE', #165, .T. ) ;
#13 = CARTESIAN_POINT ( 'NONE',  ( -0.5071999999980172369, 3.061616997867242867E-17, -0.2499999999999069078 ) ) ;
#14 = ORIENTED_EDGE ( 'NONE', *, *, #95, .F. ) ;
#15 = EDGE_LOOP ( 'NONE', ( #63, #194, #193, #14 ) ) ;
#16 = DIRECTION ( 'NONE',  ( -1.000000000000000000, 0.000000000000000000, 0.000000000000000000 ) ) ;
#17 = DIRECTION ( 'NONE',  ( 0.000000000000000000, 0.000000000000000000, 1.000000000000000000 ) ) ;
#18 = EDGE_CURVE ( 'NONE', #68, #253, #136, .T. ) ;
#19 =( GEOMETRIC_REPRESENTATION_CONTEXT ( 3 ) GLOBAL_UNCERTAINTY_ASSIGNED_CONTEXT ( ( #161 ) ) GLOBAL_UNIT_ASSIGNED_CONTEXT ( ( #155, #212, #154 ) ) REPRESENTATION_CONTEXT ( 'NONE', 'WORKASPACE' ) );
#20 = FACE_OUTER_BOUND ( 'NONE', #328, .T. ) ;
#21 = DIRECTION ( 'NONE',  ( 0.000000000000000000, 0.000000000000000000, 1.000000000000000000 ) ) ;
#22 = PRODUCT_DEFINITION ( 'UNKNOWN', '', #50, #197 ) ;
#23 = CARTESIAN_POINT ( 'NONE',  ( 0.000000000000000000, 0.000000000000000000, 0.000000000000000000 ) ) ;
#24 = DIRECTION ( 'NONE',  ( -1.000000000000000000, -0.000000000000000000, -0.000000000000000000 ) ) ;
#25 = CARTESIAN_POINT ( 'NONE',  ( -0.2500000000000000000, 0.000000000000000000, 0.000000000000000000 ) ) ;
#26 = AXIS2_PLACEMENT_3D ( 'NONE', #252, #198, #311 ) ;
#27 = SHAPE_DEFINITION_REPRESENTATION ( #112, #192 ) ;
#28 = ORIENTED_EDGE ( 'NONE', *, *, #283, .F. ) ;
#29 = CARTESIAN_POINT ( 'NONE',  ( -0.5071999999999999842, 0.000000000000000000, 0.2500000000010516588 ) ) ;
#30 = EDGE_CURVE ( 'NONE', #233, #167, #2, .T. ) ;
#31 = VERTEX_POINT ( 'NONE', #92 ) ;
#32 = AXIS2_PLACEMENT_3D ( 'NONE', #113, #35, #138 ) ;
#33 = PLANE ( 'NONE',  #61 ) ;
#34 = CARTESIAN_POINT ( 'NONE',  ( -1.999999999999255262, 2.877919977993585991E-17, 0.2199999999995600197 ) ) ;
#35 = DIRECTION ( 'NONE',  ( 1.000000000000000000, -0.000000000000000000, 5.463695987330561698E-16 ) ) ;
#36 = AXIS2_PLACEMENT_3D ( 'NONE', #306, #173, #280 ) ;
#37 = CARTESIAN_POINT ( 'NONE',  ( -1.969999999998908624, 3.061616997867242867E-17, 0.2499999999999069078 ) ) ;
#38 = ADVANCED_FACE ( 'NONE', ( #201 ), #331, .T. ) ;
#39 = ORIENTED_EDGE ( 'NONE', *, *, #218, .F. ) ;
#40 = CARTESIAN_POINT ( 'NONE',  ( 0.000000000000000000, 2.296212748401286801E-17, 0.1874999999999999722 ) ) ;
#41 = ORIENTED_EDGE ( 'NONE', *, *, #247, .F. ) ;
#42 = LINE ( 'NONE', #72, #82 ) ;
#43 = CARTESIAN_POINT ( 'NONE',  ( -0.2499904550739627529, 0.000000000000000000, 0.000000000000000000 ) ) ;
#44 = DIRECTION ( 'NONE',  ( 0.000000000000000000, 0.000000000000000000, -1.000000000000000000 ) ) ;
#45 = AXIS2_PLACEMENT_3D ( 'NONE', #341, #7, #64 ) ;
#46 = FACE_OUTER_BOUND ( 'NONE', #89, .T. ) ;
#47 = ORIENTED_EDGE ( 'NONE', *, *, #95, .T. ) ;
#48 = DIRECTION ( 'NONE',  ( 0.000000000000000000, 0.000000000000000000, 1.000000000000000000 ) ) ;
#49 = DIRECTION ( 'NONE',  ( -1.000000000000000000, 0.000000000000000000, 0.000000000000000000 ) ) ;
#50 = PRODUCT_DEFINITION_FORMATION_WITH_SPECIFIED_SOURCE ( 'ANY', '', #324, .NOT_KNOWN. ) ;
#51 = CARTESIAN_POINT ( 'NONE',  ( 0.000000000000000000, 0.000000000000000000, 0.000000000000000000 ) ) ;
#52 = EDGE_CURVE ( 'NONE', #272, #31, #94, .T. ) ;
#53 = DIRECTION ( 'NONE',  ( -1.000000000000000000, 0.000000000000000000, 0.000000000000000000 ) ) ;
#54 = DIRECTION ( 'NONE',  ( -1.000000000000000000, 0.000000000000000000, 0.000000000000000000 ) ) ;
#55 = CARTESIAN_POINT ( 'NONE',  ( 0.000000000000000000, 0.000000000000000000, 0.000000000000000000 ) ) ;
#56 = CIRCLE ( 'NONE', #305, 0.1015000000000000069 ) ;
#57 = CARTESIAN_POINT ( 'NONE',  ( -0.2499904550739627529, 0.000000000000000000, 0.000000000000000000 ) ) ;
#58 = CONICAL_SURFACE ( 'NONE', #310, 0.2499999999999069078, 0.5235987755978991354 ) ;
#59 = ADVANCED_FACE ( 'NONE', ( #140 ), #84, .T. ) ;
#60 = FACE_OUTER_BOUND ( 'NONE', #62, .T. ) ;
#61 = AXIS2_PLACEMENT_3D ( 'NONE', #276, #49, #260 ) ;
#62 = EDGE_LOOP ( 'NONE', ( #74, #177, #97, #1 ) ) ;
#63 = ORIENTED_EDGE ( 'NONE', *, *, #242, .T. ) ;
#64 = DIRECTION ( 'NONE',  ( 1.092739197466112142E-15, 0.000000000000000000, -1.000000000000000000 ) ) ;
#65 = LINE ( 'NONE', #40, #344 ) ;
#66 = ADVANCED_FACE ( 'NONE', ( #86 ), #143, .T. ) ;
#67 = ORIENTED_EDGE ( 'NONE', *, *, #52, .T. ) ;
#68 = VERTEX_POINT ( 'NONE', #34 ) ;
#69 =( NAMED_UNIT ( * ) SI_UNIT ( $, .STERADIAN. ) SOLID_ANGLE_UNIT ( ) );
#70 = COLOUR_RGB ( '',0.6274509803921568540, 0.6274509803921568540, 0.6274509803921568540 ) ;
#71 = ORIENTED_EDGE ( 'NONE', *, *, #126, .T. ) ;
#72 = CARTESIAN_POINT ( 'NONE',  ( 0.000000000000000000, 1.243016501134563680E-17, -0.1015000000000000069 ) ) ;
#73 = CYLINDRICAL_SURFACE ( 'NONE', #131, 0.1874999999999999722 ) ;
#74 = ORIENTED_EDGE ( 'NONE', *, *, #283, .T. ) ;
#75 = CARTESIAN_POINT ( 'NONE',  ( -0.5071999999999999842, 0.000000000000000000, 0.000000000000000000 ) ) ;
#76 = ORIENTED_EDGE ( 'NONE', *, *, #183, .T. ) ;
#77 = CARTESIAN_POINT ( 'NONE',  ( -0.5071999999980172369, 0.000000000000000000, 0.000000000000000000 ) ) ;
#78 = EDGE_CURVE ( 'NONE', #299, #101, #109, .T. ) ;
#79 = DIMENSIONAL_EXPONENTS ( 1.000000000000000000, 0.000000000000000000, 0.000000000000000000, 0.000000000000000000, 0.000000000000000000, 0.000000000000000000, 0.000000000000000000 ) ;
#80 = AXIS2_PLACEMENT_3D ( 'NONE', #111, #222, #202 ) ;
#81 = DIRECTION ( 'NONE',  ( 0.000000000000000000, 0.000000000000000000, 1.000000000000000000 ) ) ;
#82 = VECTOR ( 'NONE', #342, 39.37007874015748143 ) ;
#83 = ADVANCED_FACE ( 'NONE', ( #12 ), #137, .T. ) ;
#84 = CONICAL_SURFACE ( 'NONE', #26, 0.2499999999999069078, 0.7853981633974482790 ) ;
#85 = EDGE_LOOP ( 'NONE', ( #296, #229, #28, #259 ) ) ;
#86 = FACE_OUTER_BOUND ( 'NONE', #269, .T. ) ;
#87 = LINE ( 'NONE', #191, #206 ) ;
#88 = EDGE_CURVE ( 'NONE', #167, #233, #175, .T. ) ;
#89 = EDGE_LOOP ( 'NONE', ( #286, #4 ) ) ;
#90 = AXIS2_PLACEMENT_3D ( 'NONE', #350, #122, #48 ) ;
#91 = EDGE_LOOP ( 'NONE', ( #110, #300 ) ) ;
#92 = CARTESIAN_POINT ( 'NONE',  ( 0.000000000000000000, 0.000000000000000000, 0.1015000000000000069 ) ) ;
#93 = DIRECTION ( 'NONE',  ( -0.8660254037846384367, 6.123233995732525909E-17, -0.4999999999996537769 ) ) ;
#94 = CIRCLE ( 'NONE', #267, 0.1015000000000000069 ) ;
#95 = EDGE_CURVE ( 'NONE', #150, #312, #87, .T. ) ;
#96 = CARTESIAN_POINT ( 'NONE',  ( 0.1250000000000000000, 0.000000000000000000, -0.1874999999999999722 ) ) ;
#97 = ORIENTED_EDGE ( 'NONE', *, *, #196, .T. ) ;
#98 =( LENGTH_UNIT ( ) NAMED_UNIT ( * ) SI_UNIT ( $, .METRE. ) );
#99 = EDGE_LOOP ( 'NONE', ( #39, #67, #219, #346 ) ) ;
#100 = FACE_OUTER_BOUND ( 'NONE', #85, .T. ) ;
#101 = VERTEX_POINT ( 'NONE', #130 ) ;
#102 = EDGE_CURVE ( 'NONE', #101, #299, #56, .T. ) ;
#103 = FACE_OUTER_BOUND ( 'NONE', #251, .T. ) ;
#104 = CIRCLE ( 'NONE', #291, 0.2500000000000000000 ) ;
#105 = CIRCLE ( 'NONE', #80, 0.2199999999995600197 ) ;
#106 = AXIS2_PLACEMENT_3D ( 'NONE', #309, #228, #340 ) ;
#107 = PRODUCT_CONTEXT ( 'NONE', #142, 'mechanical' ) ;
#108 = EDGE_LOOP ( 'NONE', ( #279, #117, #174, #357 ) ) ;
#109 = CIRCLE ( 'NONE', #339, 0.1015000000000000069 ) ;
#110 = ORIENTED_EDGE ( 'NONE', *, *, #242, .F. ) ;
#111 = CARTESIAN_POINT ( 'NONE',  ( -1.999999999999255262, 0.000000000000000000, -1.639108796218122113E-17 ) ) ;
#112 = PRODUCT_DEFINITION_SHAPE ( 'NONE', 'NONE',  #22 ) ;
#113 = CARTESIAN_POINT ( 'NONE',  ( -1.999999999999255262, 0.000000000000000000, -1.639108796218122113E-17 ) ) ;
#114 = LENGTH_MEASURE_WITH_UNIT ( LENGTH_MEASURE( 0.02539999999999999897 ), #98 );
#115 = ADVANCED_FACE ( 'NONE', ( #60 ), #186, .T. ) ;
#116 = CARTESIAN_POINT ( 'NONE',  ( -1.999999999999255262, 0.000000000000000000, -0.2199999999995600197 ) ) ;
#117 = ORIENTED_EDGE ( 'NONE', *, *, #102, .T. ) ;
#118 = CIRCLE ( 'NONE', #243, 0.1015000000000000069 ) ;
#119 = AXIS2_PLACEMENT_3D ( 'NONE', #23, #216, #240 ) ;
#120 = ORIENTED_EDGE ( 'NONE', *, *, #223, .F. ) ;
#121 = ADVANCED_FACE ( 'NONE', ( #103 ), #184, .T. ) ;
#122 = DIRECTION ( 'NONE',  ( -1.000000000000000000, 0.000000000000000000, 0.000000000000000000 ) ) ;
#123 = ORIENTED_EDGE ( 'NONE', *, *, #338, .F. ) ;
#124 = DIRECTION ( 'NONE',  ( 1.000000000000000000, 0.000000000000000000, 0.000000000000000000 ) ) ;
#125 = DIMENSIONAL_EXPONENTS ( 1.000000000000000000, 0.000000000000000000, 0.000000000000000000, 0.000000000000000000, 0.000000000000000000, 0.000000000000000000, 0.000000000000000000 ) ;
#126 = EDGE_CURVE ( 'NONE', #139, #253, #361, .T. ) ;
#127 = AXIS2_PLACEMENT_3D ( 'NONE', #190, #281, #301 ) ;
#128 = FACE_OUTER_BOUND ( 'NONE', #99, .T. ) ;
#129 = PRODUCT_RELATED_PRODUCT_CATEGORY ( 'part', '', ( #324 ) ) ;
#130 = CARTESIAN_POINT ( 'NONE',  ( -0.2499904550739627529, 1.243016501134563680E-17, -0.1015000000000000069 ) ) ;
#131 = AXIS2_PLACEMENT_3D ( 'NONE', #195, #168, #44 ) ;
#132 = DIRECTION ( 'NONE',  ( 0.000000000000000000, 0.000000000000000000, 1.000000000000000000 ) ) ;
#133 = ORIENTED_EDGE ( 'NONE', *, *, #18, .F. ) ;
#134 = FACE_BOUND ( 'NONE', #162, .T. ) ;
#135 = ORIENTED_EDGE ( 'NONE', *, *, #261, .F. ) ;
#136 = LINE ( 'NONE', #37, #256 ) ;
#137 = CYLINDRICAL_SURFACE ( 'NONE', #248, 0.1015000000000000069 ) ;
#138 = DIRECTION ( 'NONE',  ( 0.000000000000000000, 0.000000000000000000, -1.000000000000000000 ) ) ;
#139 = VERTEX_POINT ( 'NONE', #29 ) ;
#140 = FACE_OUTER_BOUND ( 'NONE', #244, .T. ) ;
#141 = DIRECTION ( 'NONE',  ( -1.000000000000000000, 0.000000000000000000, 0.000000000000000000 ) ) ;
#142 = APPLICATION_CONTEXT ( 'automotive_design' ) ;
#143 = CYLINDRICAL_SURFACE ( 'NONE', #127, 0.1874999999999999722 ) ;
#144 = CONICAL_SURFACE ( 'NONE', #330, 0.2499999999999069078, 0.5235987755978991354 ) ;
#145 = ADVANCED_FACE ( 'NONE', ( #134, #46 ), #285, .F. ) ;
#146 = DIRECTION ( 'NONE',  ( -1.000000000000000000, 0.000000000000000000, 0.000000000000000000 ) ) ;
#147 = SURFACE_STYLE_USAGE ( .BOTH. , #164 ) ;
#148 = CARTESIAN_POINT ( 'NONE',  ( 0.000000000000000000, 0.000000000000000000, 0.000000000000000000 ) ) ;
#149 = LINE ( 'NONE', #13, #179 ) ;
#150 = VERTEX_POINT ( 'NONE', #116 ) ;
#151 =( LENGTH_UNIT ( ) NAMED_UNIT ( * ) SI_UNIT ( $, .METRE. ) );
#152 = CIRCLE ( 'NONE', #355, 0.1874999999999999722 ) ;
#153 = ORIENTED_EDGE ( 'NONE', *, *, #338, .T. ) ;
#154 =( NAMED_UNIT ( * ) SI_UNIT ( $, .STERADIAN. ) SOLID_ANGLE_UNIT ( ) );
#155 =( CONVERSION_BASED_UNIT ( 'INCH', #353 ) LENGTH_UNIT ( ) NAMED_UNIT ( #125 ) );
#156 = CARTESIAN_POINT ( 'NONE',  ( -1.969999999999999973, 0.000000000000000000, 0.000000000000000000 ) ) ;
#157 = EDGE_CURVE ( 'NONE', #68, #150, #105, .T. ) ;
#158 = DIRECTION ( 'NONE',  ( -1.000000000000000000, 0.000000000000000000, 0.000000000000000000 ) ) ;
#159 = DIRECTION ( 'NONE',  ( -1.000000000000000000, 0.000000000000000000, 0.000000000000000000 ) ) ;
#160 = EDGE_CURVE ( 'NONE', #101, #343, #149, .T. ) ;
#161 = UNCERTAINTY_MEASURE_WITH_UNIT (LENGTH_MEASURE( 1.000000000000000082E-05 ), #155, 'distance_accuracy_value', 'NONE');
#162 = EDGE_LOOP ( 'NONE', ( #332, #6 ) ) ;
#163 = ORIENTED_EDGE ( 'NONE', *, *, #218, .T. ) ;
#164 = SURFACE_SIDE_STYLE ('',( #254 ) ) ;
#165 = EDGE_LOOP ( 'NONE', ( #189, #163, #274, #41 ) ) ;
#166 = DIRECTION ( 'NONE',  ( -1.000000000000000000, 0.000000000000000000, 0.000000000000000000 ) ) ;
#167 = VERTEX_POINT ( 'NONE', #8 ) ;
#168 = DIRECTION ( 'NONE',  ( 1.000000000000000000, 0.000000000000000000, 0.000000000000000000 ) ) ;
#169 = MANIFOLD_SOLID_BREP ( 'Body1', #211 ) ;
#170 = VERTEX_POINT ( 'NONE', #199 ) ;
#171 = FILL_AREA_STYLE ('',( #230 ) ) ;
#172 = LINE ( 'NONE', #227, #323 ) ;
#173 = DIRECTION ( 'NONE',  ( 1.000000000000000000, -0.000000000000000000, -0.000000000000000000 ) ) ;
#174 = ORIENTED_EDGE ( 'NONE', *, *, #321, .T. ) ;
#175 = CIRCLE ( 'NONE', #314, 0.1874999999999999722 ) ;
#176 = DIRECTION ( 'NONE',  ( 1.000000000000000000, 0.000000000000000000, 0.000000000000000000 ) ) ;
#177 = ORIENTED_EDGE ( 'NONE', *, *, #223, .T. ) ;
#178 = DIRECTION ( 'NONE',  ( 0.000000000000000000, 0.000000000000000000, -1.000000000000000000 ) ) ;
#179 = VECTOR ( 'NONE', #93, 39.37007874015748854 ) ;
#180 = MECHANICAL_DESIGN_GEOMETRIC_PRESENTATION_REPRESENTATION (  '', ( #360 ), #293 ) ;
#181 = DIRECTION ( 'NONE',  ( -1.000000000000000000, 0.000000000000000000, 0.000000000000000000 ) ) ;
#182 = CIRCLE ( 'NONE', #32, 0.2199999999995600197 ) ;
#183 = EDGE_CURVE ( 'NONE', #170, #205, #263, .T. ) ;
#184 = PLANE ( 'NONE',  #320 ) ;
#185 = AXIS2_PLACEMENT_3D ( 'NONE', #348, #54, #266 ) ;
#186 = CYLINDRICAL_SURFACE ( 'NONE', #225, 0.2500000000000000000 ) ;
#187 = AXIS2_PLACEMENT_3D ( 'NONE', #221, #308, #303 ) ;
#188 = ADVANCED_FACE ( 'NONE', ( #11 ), #73, .T. ) ;
#189 = ORIENTED_EDGE ( 'NONE', *, *, #258, .T. ) ;
#190 = CARTESIAN_POINT ( 'NONE',  ( 0.000000000000000000, 0.000000000000000000, 0.000000000000000000 ) ) ;
#191 = CARTESIAN_POINT ( 'NONE',  ( -1.969999999998908180, 0.000000000000000000, -0.2499999999999069078 ) ) ;
#192 = ADVANCED_BREP_SHAPE_REPRESENTATION ( '03-3395', ( #169, #119 ), #19 ) ;
#193 = ORIENTED_EDGE ( 'NONE', *, *, #196, .F. ) ;
#194 = ORIENTED_EDGE ( 'NONE', *, *, #18, .T. ) ;
#195 = CARTESIAN_POINT ( 'NONE',  ( 0.000000000000000000, 0.000000000000000000, 0.000000000000000000 ) ) ;
#196 = EDGE_CURVE ( 'NONE', #312, #253, #226, .T. ) ;
#197 = PRODUCT_DEFINITION_CONTEXT ( 'detailed design', #289, 'design' ) ;
#198 = DIRECTION ( 'NONE',  ( 1.000000000000000000, -0.000000000000000000, 5.463695987330561698E-16 ) ) ;
#199 = CARTESIAN_POINT ( 'NONE',  ( 0.000000000000000000, 0.000000000000000000, -0.1874999999999999722 ) ) ;
#200 = CARTESIAN_POINT ( 'NONE',  ( 0.000000000000000000, 0.000000000000000000, 0.000000000000000000 ) ) ;
#201 = FACE_OUTER_BOUND ( 'NONE', #15, .T. ) ;
#202 = DIRECTION ( 'NONE',  ( 0.000000000000000000, 0.000000000000000000, -1.000000000000000000 ) ) ;
#203 = ORIENTED_EDGE ( 'NONE', *, *, #88, .F. ) ;
#204 = CARTESIAN_POINT ( 'NONE',  ( 0.000000000000000000, 0.000000000000000000, 0.000000000000000000 ) ) ;
#205 = VERTEX_POINT ( 'NONE', #278 ) ;
#206 = VECTOR ( 'NONE', #215, 39.37007874015748143 ) ;
#207 = DIRECTION ( 'NONE',  ( -1.000000000000000000, 0.000000000000000000, 0.000000000000000000 ) ) ;
#208 = CARTESIAN_POINT ( 'NONE',  ( -0.5071999999980172369, 0.000000000000000000, 0.2499999999999069078 ) ) ;
#209 = CIRCLE ( 'NONE', #185, 0.2500000000000000000 ) ;
#210 = DIRECTION ( 'NONE',  ( -0.8660254037846384367, 0.000000000000000000, 0.4999999999996537769 ) ) ;
#211 = CLOSED_SHELL ( 'NONE', ( #115, #297, #38, #83, #66, #352, #317, #59, #307, #9, #145, #188, #121 ) ) ;
#212 =( NAMED_UNIT ( * ) PLANE_ANGLE_UNIT ( ) SI_UNIT ( $, .RADIAN. ) );
#213 = VECTOR ( 'NONE', #210, 39.37007874015748854 ) ;
#214 = DIRECTION ( 'NONE',  ( 1.000000000000000000, 0.000000000000000000, 0.000000000000000000 ) ) ;
#215 = DIRECTION ( 'NONE',  ( 0.7071067811865479058, 0.000000000000000000, -0.7071067811865472397 ) ) ;
#216 = DIRECTION ( 'NONE',  ( 0.000000000000000000, 0.000000000000000000, 1.000000000000000000 ) ) ;
#217 = CARTESIAN_POINT ( 'NONE',  ( -0.2500000000000000000, 0.000000000000000000, 0.2500000000000000000 ) ) ;
#218 = EDGE_CURVE ( 'NONE', #272, #101, #42, .T. ) ;
#219 = ORIENTED_EDGE ( 'NONE', *, *, #247, .T. ) ;
#220 = DIRECTION ( 'NONE',  ( 0.000000000000000000, 0.000000000000000000, 1.000000000000000000 ) ) ;
#221 = CARTESIAN_POINT ( 'NONE',  ( 0.1250000000000000000, 0.000000000000000000, 0.000000000000000000 ) ) ;
#222 = DIRECTION ( 'NONE',  ( 1.000000000000000000, -0.000000000000000000, 5.463695987330561698E-16 ) ) ;
#223 = EDGE_CURVE ( 'NONE', #343, #312, #172, .T. ) ;
#224 = CARTESIAN_POINT ( 'NONE',  ( 0.000000000000000000, 0.000000000000000000, 0.1015000000000000069 ) ) ;
#225 = AXIS2_PLACEMENT_3D ( 'NONE', #25, #326, #132 ) ;
#226 = CIRCLE ( 'NONE', #36, 0.2500000000000000000 ) ;
#227 = CARTESIAN_POINT ( 'NONE',  ( -0.2500000000000000000, 3.061616997868383018E-17, -0.2500000000000000000 ) ) ;
#228 = DIRECTION ( 'NONE',  ( 1.000000000000000000, 0.000000000000000000, 0.000000000000000000 ) ) ;
#229 = ORIENTED_EDGE ( 'NONE', *, *, #160, .T. ) ;
#230 = FILL_AREA_STYLE_COLOUR ( '', #70 ) ;
#231 = ORIENTED_EDGE ( 'NONE', *, *, #30, .F. ) ;
#232 = CYLINDRICAL_SURFACE ( 'NONE', #90, 0.2500000000000000000 ) ;
#233 = VERTEX_POINT ( 'NONE', #96 ) ;
#234 = FACE_OUTER_BOUND ( 'NONE', #108, .T. ) ;
#235 = EDGE_CURVE ( 'NONE', #205, #167, #65, .T. ) ;
#236 = CARTESIAN_POINT ( 'NONE',  ( 0.000000000000000000, 1.243016501134563680E-17, -0.1015000000000000069 ) ) ;
#237 = CARTESIAN_POINT ( 'NONE',  ( -1.969999999999999973, 3.061616997853877222E-17, 0.2499999999988155308 ) ) ;
#238 = LINE ( 'NONE', #208, #213 ) ;
#239 = PRESENTATION_LAYER_ASSIGNMENT (  '', '', ( #360 ) ) ;
#240 = DIRECTION ( 'NONE',  ( 1.000000000000000000, 0.000000000000000000, 0.000000000000000000 ) ) ;
#241 = DIRECTION ( 'NONE',  ( 0.000000000000000000, 0.000000000000000000, -1.000000000000000000 ) ) ;
#242 = EDGE_CURVE ( 'NONE', #150, #68, #182, .T. ) ;
#243 = AXIS2_PLACEMENT_3D ( 'NONE', #55, #53, #81 ) ;
#244 = EDGE_LOOP ( 'NONE', ( #133, #334, #47, #135 ) ) ;
#245 = DIRECTION ( 'NONE',  ( 0.000000000000000000, 0.000000000000000000, -1.000000000000000000 ) ) ;
#246 = ORIENTED_EDGE ( 'NONE', *, *, #327, .T. ) ;
#247 = EDGE_CURVE ( 'NONE', #31, #299, #250, .T. ) ;
#248 = AXIS2_PLACEMENT_3D ( 'NONE', #249, #268, #270 ) ;
#249 = CARTESIAN_POINT ( 'NONE',  ( 0.000000000000000000, 0.000000000000000000, 0.000000000000000000 ) ) ;
#250 = LINE ( 'NONE', #224, #273 ) ;
#251 = EDGE_LOOP ( 'NONE', ( #231, #203 ) ) ;
#252 = CARTESIAN_POINT ( 'NONE',  ( -1.969999999998908402, 0.000000000000000000, 0.000000000000000000 ) ) ;
#253 = VERTEX_POINT ( 'NONE', #237 ) ;
#254 = SURFACE_STYLE_FILL_AREA ( #171 ) ;
#255 = DIRECTION ( 'NONE',  ( 0.000000000000000000, 0.000000000000000000, 1.000000000000000000 ) ) ;
#256 = VECTOR ( 'NONE', #3, 39.37007874015748143 ) ;
#257 =( CONVERSION_BASED_UNIT ( 'INCH', #114 ) LENGTH_UNIT ( ) NAMED_UNIT ( #79 ) );
#258 = EDGE_CURVE ( 'NONE', #31, #272, #118, .T. ) ;
#259 = ORIENTED_EDGE ( 'NONE', *, *, #321, .F. ) ;
#260 = DIRECTION ( 'NONE',  ( 0.000000000000000000, 0.000000000000000000, 1.000000000000000000 ) ) ;
#261 = EDGE_CURVE ( 'NONE', #253, #312, #313, .T. ) ;
#262 = CARTESIAN_POINT ( 'NONE',  ( -1.969999999999999973, 0.000000000000000000, -0.2499999999988150035 ) ) ;
#263 = CIRCLE ( 'NONE', #106, 0.1874999999999999722 ) ;
#264 = DIRECTION ( 'NONE',  ( 0.000000000000000000, 0.000000000000000000, 1.000000000000000000 ) ) ;
#265 = VECTOR ( 'NONE', #176, 39.37007874015748143 ) ;
#266 = DIRECTION ( 'NONE',  ( 0.000000000000000000, 0.000000000000000000, 1.000000000000000000 ) ) ;
#267 = AXIS2_PLACEMENT_3D ( 'NONE', #148, #166, #220 ) ;
#268 = DIRECTION ( 'NONE',  ( -1.000000000000000000, 0.000000000000000000, 0.000000000000000000 ) ) ;
#269 = EDGE_LOOP ( 'NONE', ( #76, #304, #325, #123 ) ) ;
#270 = DIRECTION ( 'NONE',  ( 0.000000000000000000, 0.000000000000000000, 1.000000000000000000 ) ) ;
#271 = UNCERTAINTY_MEASURE_WITH_UNIT (LENGTH_MEASURE( 1.000000000000000082E-05 ), #257, 'distance_accuracy_value', 'NONE');
#272 = VERTEX_POINT ( 'NONE', #236 ) ;
#273 = VECTOR ( 'NONE', #141, 39.37007874015748143 ) ;
#274 = ORIENTED_EDGE ( 'NONE', *, *, #78, .F. ) ;
#275 = DIRECTION ( 'NONE',  ( 1.000000000000000000, 0.000000000000000000, 0.000000000000000000 ) ) ;
#276 = CARTESIAN_POINT ( 'NONE',  ( -2.000000000000000000, 0.000000000000000000, 0.000000000000000000 ) ) ;
#277 = ORIENTED_EDGE ( 'NONE', *, *, #261, .T. ) ;
#278 = CARTESIAN_POINT ( 'NONE',  ( 0.000000000000000000, 2.296212748401286801E-17, 0.1874999999999999722 ) ) ;
#279 = ORIENTED_EDGE ( 'NONE', *, *, #160, .F. ) ;
#280 = DIRECTION ( 'NONE',  ( 0.000000000000000000, 0.000000000000000000, 1.000000000000000000 ) ) ;
#281 = DIRECTION ( 'NONE',  ( 1.000000000000000000, 0.000000000000000000, 0.000000000000000000 ) ) ;
#282 = DIRECTION ( 'NONE',  ( -1.000000000000000000, 0.000000000000000000, 0.000000000000000000 ) ) ;
#283 = EDGE_CURVE ( 'NONE', #139, #343, #104, .T. ) ;
#284 = VECTOR ( 'NONE', #329, 39.37007874015748143 ) ;
#285 = PLANE ( 'NONE',  #359 ) ;
#286 = ORIENTED_EDGE ( 'NONE', *, *, #183, .F. ) ;
#287 = CARTESIAN_POINT ( 'NONE',  ( -0.5071999999999999842, 3.061616997881261789E-17, -0.2500000000010516588 ) ) ;
#288 = EDGE_LOOP ( 'NONE', ( #349, #246, #153, #335 ) ) ;
#289 = APPLICATION_CONTEXT ( 'automotive_design' ) ;
#290 = EDGE_CURVE ( 'NONE', #343, #139, #209, .T. ) ;
#291 = AXIS2_PLACEMENT_3D ( 'NONE', #75, #158, #319 ) ;
#292 = APPLICATION_PROTOCOL_DEFINITION ( 'draft international standard', 'automotive_design', 1998, #142 ) ;
#293 =( GEOMETRIC_REPRESENTATION_CONTEXT ( 3 ) GLOBAL_UNCERTAINTY_ASSIGNED_CONTEXT ( ( #271 ) ) GLOBAL_UNIT_ASSIGNED_CONTEXT ( ( #257, #337, #69 ) ) REPRESENTATION_CONTEXT ( 'NONE', 'WORKASPACE' ) );
#294 = CYLINDRICAL_SURFACE ( 'NONE', #10, 0.1015000000000000069 ) ;
#295 = CARTESIAN_POINT ( 'NONE',  ( -0.5071999999980172369, 0.000000000000000000, 0.000000000000000000 ) ) ;
#296 = ORIENTED_EDGE ( 'NONE', *, *, #78, .T. ) ;
#297 = ADVANCED_FACE ( 'NONE', ( #100 ), #144, .T. ) ;
#298 = APPLICATION_PROTOCOL_DEFINITION ( 'draft international standard', 'automotive_design', 1998, #289 ) ;
#299 = VERTEX_POINT ( 'NONE', #318 ) ;
#300 = ORIENTED_EDGE ( 'NONE', *, *, #157, .F. ) ;
#301 = DIRECTION ( 'NONE',  ( 0.000000000000000000, 0.000000000000000000, -1.000000000000000000 ) ) ;
#302 = ORIENTED_EDGE ( 'NONE', *, *, #290, .T. ) ;
#303 = DIRECTION ( 'NONE',  ( 0.000000000000000000, 0.000000000000000000, -1.000000000000000000 ) ) ;
#304 = ORIENTED_EDGE ( 'NONE', *, *, #235, .T. ) ;
#305 = AXIS2_PLACEMENT_3D ( 'NONE', #57, #159, #356 ) ;
#306 = CARTESIAN_POINT ( 'NONE',  ( -1.969999999999999973, 0.000000000000000000, 0.000000000000000000 ) ) ;
#307 = ADVANCED_FACE ( 'NONE', ( #128 ), #294, .T. ) ;
#308 = DIRECTION ( 'NONE',  ( -1.000000000000000000, -0.000000000000000000, -0.000000000000000000 ) ) ;
#309 = CARTESIAN_POINT ( 'NONE',  ( 0.000000000000000000, 0.000000000000000000, 0.000000000000000000 ) ) ;
#310 = AXIS2_PLACEMENT_3D ( 'NONE', #77, #181, #17 ) ;
#311 = DIRECTION ( 'NONE',  ( 1.092739197466112142E-15, 0.000000000000000000, -1.000000000000000000 ) ) ;
#312 = VERTEX_POINT ( 'NONE', #262 ) ;
#313 = CIRCLE ( 'NONE', #347, 0.2500000000000000000 ) ;
#314 = AXIS2_PLACEMENT_3D ( 'NONE', #333, #24, #245 ) ;
#315 = LINE ( 'NONE', #351, #265 ) ;
#316 = FACE_OUTER_BOUND ( 'NONE', #91, .T. ) ;
#317 = ADVANCED_FACE ( 'NONE', ( #234 ), #58, .T. ) ;
#318 = CARTESIAN_POINT ( 'NONE',  ( -0.2499904550739627529, 0.000000000000000000, 0.1015000000000000069 ) ) ;
#319 = DIRECTION ( 'NONE',  ( 0.000000000000000000, 0.000000000000000000, 1.000000000000000000 ) ) ;
#320 = AXIS2_PLACEMENT_3D ( 'NONE', #358, #214, #241 ) ;
#321 = EDGE_CURVE ( 'NONE', #299, #139, #238, .T. ) ;
#322 = DIRECTION ( 'NONE',  ( 0.000000000000000000, 0.000000000000000000, 1.000000000000000000 ) ) ;
#323 = VECTOR ( 'NONE', #282, 39.37007874015748143 ) ;
#324 = PRODUCT ( '03-3395', '03-3395', '', ( #107 ) ) ;
#325 = ORIENTED_EDGE ( 'NONE', *, *, #88, .T. ) ;
#326 = DIRECTION ( 'NONE',  ( -1.000000000000000000, 0.000000000000000000, 0.000000000000000000 ) ) ;
#327 = EDGE_CURVE ( 'NONE', #205, #170, #152, .T. ) ;
#328 = EDGE_LOOP ( 'NONE', ( #120, #302, #71, #277 ) ) ;
#329 = DIRECTION ( 'NONE',  ( -1.000000000000000000, 0.000000000000000000, 0.000000000000000000 ) ) ;
#330 = AXIS2_PLACEMENT_3D ( 'NONE', #295, #207, #21 ) ;
#331 = CONICAL_SURFACE ( 'NONE', #45, 0.2499999999999069078, 0.7853981633974482790 ) ;
#332 = ORIENTED_EDGE ( 'NONE', *, *, #258, .F. ) ;
#333 = CARTESIAN_POINT ( 'NONE',  ( 0.1250000000000000000, 0.000000000000000000, 0.000000000000000000 ) ) ;
#334 = ORIENTED_EDGE ( 'NONE', *, *, #157, .T. ) ;
#335 = ORIENTED_EDGE ( 'NONE', *, *, #30, .T. ) ;
#336 = DIRECTION ( 'NONE',  ( 0.000000000000000000, 0.000000000000000000, -1.000000000000000000 ) ) ;
#337 =( NAMED_UNIT ( * ) PLANE_ANGLE_UNIT ( ) SI_UNIT ( $, .RADIAN. ) );
#338 = EDGE_CURVE ( 'NONE', #170, #233, #315, .T. ) ;
#339 = AXIS2_PLACEMENT_3D ( 'NONE', #43, #146, #255 ) ;
#340 = DIRECTION ( 'NONE',  ( 0.000000000000000000, 0.000000000000000000, -1.000000000000000000 ) ) ;
#341 = CARTESIAN_POINT ( 'NONE',  ( -1.969999999998908402, 0.000000000000000000, 0.000000000000000000 ) ) ;
#342 = DIRECTION ( 'NONE',  ( -1.000000000000000000, 0.000000000000000000, 0.000000000000000000 ) ) ;
#343 = VERTEX_POINT ( 'NONE', #287 ) ;
#344 = VECTOR ( 'NONE', #275, 39.37007874015748143 ) ;
#345 = PRESENTATION_STYLE_ASSIGNMENT (( #147 ) ) ;
#346 = ORIENTED_EDGE ( 'NONE', *, *, #102, .F. ) ;
#347 = AXIS2_PLACEMENT_3D ( 'NONE', #156, #354, #322 ) ;
#348 = CARTESIAN_POINT ( 'NONE',  ( -0.5071999999999999842, 0.000000000000000000, 0.000000000000000000 ) ) ;
#349 = ORIENTED_EDGE ( 'NONE', *, *, #235, .F. ) ;
#350 = CARTESIAN_POINT ( 'NONE',  ( -0.2500000000000000000, 0.000000000000000000, 0.000000000000000000 ) ) ;
#351 = CARTESIAN_POINT ( 'NONE',  ( 0.000000000000000000, 0.000000000000000000, -0.1874999999999999722 ) ) ;
#352 = ADVANCED_FACE ( 'NONE', ( #20 ), #232, .T. ) ;
#353 = LENGTH_MEASURE_WITH_UNIT ( LENGTH_MEASURE( 0.02539999999999999897 ), #151 );
#354 = DIRECTION ( 'NONE',  ( 1.000000000000000000, -0.000000000000000000, -0.000000000000000000 ) ) ;
#355 = AXIS2_PLACEMENT_3D ( 'NONE', #204, #124, #178 ) ;
#356 = DIRECTION ( 'NONE',  ( 0.000000000000000000, 0.000000000000000000, 1.000000000000000000 ) ) ;
#357 = ORIENTED_EDGE ( 'NONE', *, *, #290, .F. ) ;
#358 = CARTESIAN_POINT ( 'NONE',  ( 0.1250000000000000000, 0.000000000000000000, 0.000000000000000000 ) ) ;
#359 = AXIS2_PLACEMENT_3D ( 'NONE', #200, #5, #336 ) ;
#360 = STYLED_ITEM ( 'NONE', ( #345 ), #169 ) ;
#361 = LINE ( 'NONE', #217, #284 ) ;
ENDSEC;
END-ISO-10303-21;
