ISO-10303-21;
HEADER;
FILE_DESCRIPTION (( 'STEP AP214' ),
    '1' );
FILE_NAME ('03-3398.STEP',
    '2025-07-09T15:23:23',
    ( '' ),
    ( '' ),
    'SwSTEP 2.0',
    'SolidWorks 2023',
    '' );
FILE_SCHEMA (( 'AUTOMOTIVE_DESIGN' ));
ENDSEC;

DATA;
#1 = EDGE_CURVE ( 'NONE', #283, #76, #165, .T. ) ;
#2 = FILL_AREA_STYLE ('',( #287 ) ) ;
#3 = CARTESIAN_POINT ( 'NONE',  ( 0.000000000000000000, 0.000000000000000000, 0.000000000000000000 ) ) ;
#4 = FACE_OUTER_BOUND ( 'NONE', #18, .T. ) ;
#5 = UNCERTAINTY_MEASURE_WITH_UNIT (LENGTH_MEASURE( 1.000000000000000082E-05 ), #156, 'distance_accuracy_value', 'NONE');
#6 = VECTOR ( 'NONE', #223, 39.37007874015748143 ) ;
#7 = VECTOR ( 'NONE', #108, 39.37007874015748143 ) ;
#8 = CARTESIAN_POINT ( 'NONE',  ( -1.999999999999255262, 2.877919977993585991E-17, 0.2199999999995600197 ) ) ;
#9 = ORIENTED_EDGE ( 'NONE', *, *, #306, .F. ) ;
#10 = DIRECTION ( 'NONE',  ( 2.731847993640825668E-16, 0.000000000000000000, 1.000000000000000000 ) ) ;
#11 = ORIENTED_EDGE ( 'NONE', *, *, #24, .F. ) ;
#12 = FACE_OUTER_BOUND ( 'NONE', #270, .T. ) ;
#13 = CIRCLE ( 'NONE', #353, 0.2199999999995600197 ) ;
#14 = ORIENTED_EDGE ( 'NONE', *, *, #329, .F. ) ;
#15 = CARTESIAN_POINT ( 'NONE',  ( -0.2500000000000000000, 0.000000000000000000, 0.000000000000000000 ) ) ;
#16 = ORIENTED_EDGE ( 'NONE', *, *, #163, .T. ) ;
#17 = EDGE_CURVE ( 'NONE', #242, #222, #13, .T. ) ;
#18 = EDGE_LOOP ( 'NONE', ( #193, #267, #14, #9 ) ) ;
#19 = VERTEX_POINT ( 'NONE', #86 ) ;
#20 = CIRCLE ( 'NONE', #54, 0.2500000000000000000 ) ;
#21 = FACE_OUTER_BOUND ( 'NONE', #178, .T. ) ;
#22 = SURFACE_STYLE_FILL_AREA ( #2 ) ;
#23 = DIRECTION ( 'NONE',  ( -1.000000000000000000, 0.000000000000000000, 1.365923996820413080E-16 ) ) ;
#24 = EDGE_CURVE ( 'NONE', #222, #242, #291, .T. ) ;
#25 = DIRECTION ( 'NONE',  ( 0.000000000000000000, 0.000000000000000000, -1.000000000000000000 ) ) ;
#26 = STYLED_ITEM ( 'NONE', ( #259 ), #68 ) ;
#27 = CONICAL_SURFACE ( 'NONE', #175, 0.2500000000021448399, 0.5235987755971300839 ) ;
#28 = DIRECTION ( 'NONE',  ( -1.000000000000000000, 0.000000000000000000, 0.000000000000000000 ) ) ;
#29 = ORIENTED_EDGE ( 'NONE', *, *, #81, .T. ) ;
#30 = DIRECTION ( 'NONE',  ( 0.000000000000000000, 0.000000000000000000, 1.000000000000000000 ) ) ;
#31 = SHAPE_DEFINITION_REPRESENTATION ( #320, #198 ) ;
#32 = VECTOR ( 'NONE', #87, 39.37007874015748143 ) ;
#33 = ORIENTED_EDGE ( 'NONE', *, *, #17, .F. ) ;
#34 = CARTESIAN_POINT ( 'NONE',  ( -0.4664999999999999702, 0.000000000000000000, 0.000000000000000000 ) ) ;
#35 = ORIENTED_EDGE ( 'NONE', *, *, #163, .F. ) ;
#36 = FACE_OUTER_BOUND ( 'NONE', #126, .T. ) ;
#37 = ADVANCED_FACE ( 'NONE', ( #357, #205 ), #202, .F. ) ;
#38 = CIRCLE ( 'NONE', #284, 0.1250000000000000000 ) ;
#39 = ORIENTED_EDGE ( 'NONE', *, *, #224, .T. ) ;
#40 = CARTESIAN_POINT ( 'NONE',  ( -0.4665000000002470504, 0.000000000000000000, 0.000000000000000000 ) ) ;
#41 = ORIENTED_EDGE ( 'NONE', *, *, #190, .T. ) ;
#42 = DIRECTION ( 'NONE',  ( 0.000000000000000000, 0.000000000000000000, -1.000000000000000000 ) ) ;
#43 = ORIENTED_EDGE ( 'NONE', *, *, #66, .F. ) ;
#44 = ORIENTED_EDGE ( 'NONE', *, *, #49, .T. ) ;
#45 = ORIENTED_EDGE ( 'NONE', *, *, #278, .F. ) ;
#46 = CIRCLE ( 'NONE', #100, 0.1250000000000000000 ) ;
#47 = ORIENTED_EDGE ( 'NONE', *, *, #318, .F. ) ;
#48 = VECTOR ( 'NONE', #168, 39.37007874015748143 ) ;
#49 = EDGE_CURVE ( 'NONE', #191, #356, #181, .T. ) ;
#50 = EDGE_CURVE ( 'NONE', #96, #294, #330, .T. ) ;
#51 = CARTESIAN_POINT ( 'NONE',  ( 0.000000000000000000, 0.000000000000000000, -0.2500000000000000000 ) ) ;
#52 = DIRECTION ( 'NONE',  ( -1.000000000000000000, 0.000000000000000000, 0.000000000000000000 ) ) ;
#53 = DIRECTION ( 'NONE',  ( 0.000000000000000000, 0.000000000000000000, 1.000000000000000000 ) ) ;
#54 = AXIS2_PLACEMENT_3D ( 'NONE', #200, #341, #333 ) ;
#55 = CARTESIAN_POINT ( 'NONE',  ( 0.000000000000000000, 0.000000000000000000, 0.000000000000000000 ) ) ;
#56 = CARTESIAN_POINT ( 'NONE',  ( -1.969999999998908402, 0.000000000000000000, 0.000000000000000000 ) ) ;
#57 = CARTESIAN_POINT ( 'NONE',  ( -0.2499936490498380071, 0.000000000000000000, -2.957312202271857186E-17 ) ) ;
#58 = DIRECTION ( 'NONE',  ( 1.092739197466112142E-15, 0.000000000000000000, -1.000000000000000000 ) ) ;
#59 = APPLICATION_PROTOCOL_DEFINITION ( 'draft international standard', 'automotive_design', 1998, #216 ) ;
#60 = EDGE_LOOP ( 'NONE', ( #275, #79, #281, #185 ) ) ;
#61 = CYLINDRICAL_SURFACE ( 'NONE', #134, 0.2500000000000000000 ) ;
#62 = UNCERTAINTY_MEASURE_WITH_UNIT (LENGTH_MEASURE( 1.000000000000000082E-05 ), #63, 'distance_accuracy_value', 'NONE');
#63 =( CONVERSION_BASED_UNIT ( 'INCH', #269 ) LENGTH_UNIT ( ) NAMED_UNIT ( #250 ) );
#64 = ORIENTED_EDGE ( 'NONE', *, *, #296, .F. ) ;
#65 = FACE_OUTER_BOUND ( 'NONE', #69, .T. ) ;
#66 = EDGE_CURVE ( 'NONE', #96, #239, #106, .T. ) ;
#67 = PRODUCT ( '03-3398', '03-3398', '', ( #262 ) ) ;
#68 = MANIFOLD_SOLID_BREP ( 'Body1', #149 ) ;
#69 = EDGE_LOOP ( 'NONE', ( #342, #72 ) ) ;
#70 = CARTESIAN_POINT ( 'NONE',  ( 0.000000000000000000, 0.000000000000000000, 0.1250000000000000000 ) ) ;
#71 = ADVANCED_FACE ( 'NONE', ( #12 ), #159, .T. ) ;
#72 = ORIENTED_EDGE ( 'NONE', *, *, #190, .F. ) ;
#73 = AXIS2_PLACEMENT_3D ( 'NONE', #120, #292, #25 ) ;
#74 = DIRECTION ( 'NONE',  ( -0.8660254037850230180, 0.000000000000000000, 0.4999999999989879762 ) ) ;
#75 = ORIENTED_EDGE ( 'NONE', *, *, #207, .T. ) ;
#76 = VERTEX_POINT ( 'NONE', #179 ) ;
#77 = CYLINDRICAL_SURFACE ( 'NONE', #166, 0.2500000000000000000 ) ;
#78 = ORIENTED_EDGE ( 'NONE', *, *, #228, .F. ) ;
#79 = ORIENTED_EDGE ( 'NONE', *, *, #152, .T. ) ;
#80 = CIRCLE ( 'NONE', #104, 0.1250000000000000000 ) ;
#81 = EDGE_CURVE ( 'NONE', #191, #273, #101, .T. ) ;
#82 = CARTESIAN_POINT ( 'NONE',  ( -0.4664999999999999702, 3.061616997892902417E-17, -0.2500000000020021762 ) ) ;
#83 = PRODUCT_DEFINITION_CONTEXT ( 'detailed design', #211, 'design' ) ;
#84 = CARTESIAN_POINT ( 'NONE',  ( -0.4665000000002471059, 3.061616997894649621E-17, -0.2500000000021448399 ) ) ;
#85 =( GEOMETRIC_REPRESENTATION_CONTEXT ( 3 ) GLOBAL_UNCERTAINTY_ASSIGNED_CONTEXT ( ( #62 ) ) GLOBAL_UNIT_ASSIGNED_CONTEXT ( ( #63, #114, #142 ) ) REPRESENTATION_CONTEXT ( 'NONE', 'WORKASPACE' ) );
#86 = CARTESIAN_POINT ( 'NONE',  ( 0.000000000000000000, 1.530808498934191509E-17, -0.1250000000000000000 ) ) ;
#87 = DIRECTION ( 'NONE',  ( 0.7071067811865479058, 0.000000000000000000, -0.7071067811865472397 ) ) ;
#88 = VECTOR ( 'NONE', #260, 39.37007874015748143 ) ;
#89 = AXIS2_PLACEMENT_3D ( 'NONE', #344, #131, #184 ) ;
#90 = DIRECTION ( 'NONE',  ( 0.000000000000000000, 0.000000000000000000, 1.000000000000000000 ) ) ;
#91 = DIRECTION ( 'NONE',  ( 0.000000000000000000, 0.000000000000000000, 1.000000000000000000 ) ) ;
#92 = ORIENTED_EDGE ( 'NONE', *, *, #306, .T. ) ;
#93 = DIRECTION ( 'NONE',  ( 1.000000000000000000, -0.000000000000000000, 5.463695987330561698E-16 ) ) ;
#94 =( NAMED_UNIT ( * ) PLANE_ANGLE_UNIT ( ) SI_UNIT ( $, .RADIAN. ) );
#95 = ADVANCED_FACE ( 'NONE', ( #98 ), #61, .T. ) ;
#96 = VERTEX_POINT ( 'NONE', #125 ) ;
#97 = CYLINDRICAL_SURFACE ( 'NONE', #236, 0.1250000000000000000 ) ;
#98 = FACE_OUTER_BOUND ( 'NONE', #60, .T. ) ;
#99 = CARTESIAN_POINT ( 'NONE',  ( 0.09379999999999999449, 0.000000000000000000, 0.000000000000000000 ) ) ;
#100 = AXIS2_PLACEMENT_3D ( 'NONE', #3, #52, #113 ) ;
#101 = LINE ( 'NONE', #151, #302 ) ;
#102 = ORIENTED_EDGE ( 'NONE', *, *, #207, .F. ) ;
#103 = ORIENTED_EDGE ( 'NONE', *, *, #152, .F. ) ;
#104 = AXIS2_PLACEMENT_3D ( 'NONE', #314, #23, #315 ) ;
#105 = ADVANCED_FACE ( 'NONE', ( #36 ), #97, .T. ) ;
#106 = LINE ( 'NONE', #51, #48 ) ;
#107 = DIRECTION ( 'NONE',  ( 0.000000000000000000, 0.000000000000000000, -1.000000000000000000 ) ) ;
#108 = DIRECTION ( 'NONE',  ( -1.000000000000000000, 0.000000000000000000, 0.000000000000000000 ) ) ;
#109 = COLOUR_RGB ( '',0.6274509803921568540, 0.6274509803921568540, 0.6274509803921568540 ) ;
#110 = DIRECTION ( 'NONE',  ( 0.000000000000000000, 0.000000000000000000, -1.000000000000000000 ) ) ;
#111 = CARTESIAN_POINT ( 'NONE',  ( 0.000000000000000000, 3.061616997868383018E-17, 0.2500000000000000000 ) ) ;
#112 = DIRECTION ( 'NONE',  ( 0.000000000000000000, 0.000000000000000000, 1.000000000000000000 ) ) ;
#113 = DIRECTION ( 'NONE',  ( 0.000000000000000000, 0.000000000000000000, 1.000000000000000000 ) ) ;
#114 =( NAMED_UNIT ( * ) PLANE_ANGLE_UNIT ( ) SI_UNIT ( $, .RADIAN. ) );
#115 = DIRECTION ( 'NONE',  ( -0.8660254037850231290, 6.123233995724369826E-17, -0.4999999999989876986 ) ) ;
#116 = CIRCLE ( 'NONE', #339, 0.2500000000000000000 ) ;
#117 = APPLICATION_PROTOCOL_DEFINITION ( 'draft international standard', 'automotive_design', 1998, #211 ) ;
#118 = PRESENTATION_LAYER_ASSIGNMENT (  '', '', ( #26 ) ) ;
#119 = EDGE_LOOP ( 'NONE', ( #64, #124, #350, #39 ) ) ;
#120 = CARTESIAN_POINT ( 'NONE',  ( 0.09379999999999999449, 0.000000000000000000, 0.000000000000000000 ) ) ;
#121 = CARTESIAN_POINT ( 'NONE',  ( -0.2499936490498380071, 1.530808498934191817E-17, -0.1250000000000000278 ) ) ;
#122 = DIRECTION ( 'NONE',  ( -1.000000000000000000, 0.000000000000000000, 0.000000000000000000 ) ) ;
#123 = ADVANCED_FACE ( 'NONE', ( #217 ), #27, .T. ) ;
#124 = ORIENTED_EDGE ( 'NONE', *, *, #278, .T. ) ;
#125 = CARTESIAN_POINT ( 'NONE',  ( 0.000000000000000000, 0.000000000000000000, -0.2500000000000000000 ) ) ;
#126 = EDGE_LOOP ( 'NONE', ( #208, #183, #343, #35 ) ) ;
#127 = CARTESIAN_POINT ( 'NONE',  ( 0.000000000000000000, 0.000000000000000000, 0.000000000000000000 ) ) ;
#128 = CIRCLE ( 'NONE', #266, 0.2500000000000000000 ) ;
#129 = EDGE_LOOP ( 'NONE', ( #213, #297, #41, #43 ) ) ;
#130 = DIRECTION ( 'NONE',  ( 0.000000000000000000, 0.000000000000000000, 1.000000000000000000 ) ) ;
#131 = DIRECTION ( 'NONE',  ( -1.000000000000000000, 0.000000000000000000, 1.365923996820413080E-16 ) ) ;
#132 = CONICAL_SURFACE ( 'NONE', #201, 0.2499999999999069078, 0.7853981633974482790 ) ;
#133 = CARTESIAN_POINT ( 'NONE',  ( 0.000000000000000000, 0.000000000000000000, 0.000000000000000000 ) ) ;
#134 = AXIS2_PLACEMENT_3D ( 'NONE', #15, #212, #268 ) ;
#135 = EDGE_LOOP ( 'NONE', ( #328, #237, #92, #354 ) ) ;
#136 = EDGE_CURVE ( 'NONE', #19, #356, #219, .T. ) ;
#137 = ORIENTED_EDGE ( 'NONE', *, *, #81, .F. ) ;
#138 = CARTESIAN_POINT ( 'NONE',  ( -1.999999999999255262, 0.000000000000000000, -1.639108796218122113E-17 ) ) ;
#139 = CARTESIAN_POINT ( 'NONE',  ( -0.4664999999999999702, 0.000000000000000000, 0.2500000000020022872 ) ) ;
#140 = SURFACE_SIDE_STYLE ('',( #22 ) ) ;
#141 = DIRECTION ( 'NONE',  ( 1.000000000000000000, -0.000000000000000000, 5.463695987330561698E-16 ) ) ;
#142 =( NAMED_UNIT ( * ) SI_UNIT ( $, .STERADIAN. ) SOLID_ANGLE_UNIT ( ) );
#143 = AXIS2_PLACEMENT_3D ( 'NONE', #138, #256, #110 ) ;
#144 = LINE ( 'NONE', #265, #7 ) ;
#145 = DIRECTION ( 'NONE',  ( -1.000000000000000000, 0.000000000000000000, 0.000000000000000000 ) ) ;
#146 = CARTESIAN_POINT ( 'NONE',  ( -1.969999999998908402, 0.000000000000000000, 0.000000000000000000 ) ) ;
#147 = DIRECTION ( 'NONE',  ( 0.000000000000000000, 0.000000000000000000, -1.000000000000000000 ) ) ;
#148 = CIRCLE ( 'NONE', #187, 0.2500000000000000000 ) ;
#149 = CLOSED_SHELL ( 'NONE', ( #218, #123, #258, #105, #195, #95, #71, #244, #251, #351, #37, #199, #171 ) ) ;
#150 = ORIENTED_EDGE ( 'NONE', *, *, #136, .F. ) ;
#151 = CARTESIAN_POINT ( 'NONE',  ( -0.4665000000002469394, 0.000000000000000000, 0.2500000000021448399 ) ) ;
#152 = EDGE_CURVE ( 'NONE', #283, #273, #279, .T. ) ;
#153 = PLANE ( 'NONE',  #299 ) ;
#154 = VERTEX_POINT ( 'NONE', #70 ) ;
#155 = ORIENTED_EDGE ( 'NONE', *, *, #336, .T. ) ;
#156 =( CONVERSION_BASED_UNIT ( 'INCH', #301 ) LENGTH_UNIT ( ) NAMED_UNIT ( #164 ) );
#157 = ORIENTED_EDGE ( 'NONE', *, *, #249, .F. ) ;
#158 = CARTESIAN_POINT ( 'NONE',  ( 0.09379999999999999449, 0.000000000000000000, 0.000000000000000000 ) ) ;
#159 = CONICAL_SURFACE ( 'NONE', #89, 0.2500000000021448399, 0.5235987755971300839 ) ;
#160 = FACE_OUTER_BOUND ( 'NONE', #119, .T. ) ;
#161 = ORIENTED_EDGE ( 'NONE', *, *, #50, .F. ) ;
#162 = VERTEX_POINT ( 'NONE', #349 ) ;
#163 = EDGE_CURVE ( 'NONE', #154, #191, #245, .T. ) ;
#164 = DIMENSIONAL_EXPONENTS ( 1.000000000000000000, 0.000000000000000000, 0.000000000000000000, 0.000000000000000000, 0.000000000000000000, 0.000000000000000000, 0.000000000000000000 ) ;
#165 = LINE ( 'NONE', #255, #261 ) ;
#166 = AXIS2_PLACEMENT_3D ( 'NONE', #133, #263, #147 ) ;
#167 = LINE ( 'NONE', #84, #308 ) ;
#168 = DIRECTION ( 'NONE',  ( 1.000000000000000000, 0.000000000000000000, 0.000000000000000000 ) ) ;
#169 = CARTESIAN_POINT ( 'NONE',  ( 0.000000000000000000, 0.000000000000000000, 0.000000000000000000 ) ) ;
#170 = FACE_OUTER_BOUND ( 'NONE', #135, .T. ) ;
#171 = ADVANCED_FACE ( 'NONE', ( #65 ), #186, .T. ) ;
#172 = CARTESIAN_POINT ( 'NONE',  ( 0.000000000000000000, 0.000000000000000000, 0.000000000000000000 ) ) ;
#173 = MECHANICAL_DESIGN_GEOMETRIC_PRESENTATION_REPRESENTATION (  '', ( #26 ), #274 ) ;
#174 = DIRECTION ( 'NONE',  ( -1.000000000000000000, 0.000000000000000000, 0.000000000000000000 ) ) ;
#175 = AXIS2_PLACEMENT_3D ( 'NONE', #40, #240, #10 ) ;
#176 = DIRECTION ( 'NONE',  ( 0.000000000000000000, 0.000000000000000000, 1.000000000000000000 ) ) ;
#177 = LINE ( 'NONE', #338, #194 ) ;
#178 = EDGE_LOOP ( 'NONE', ( #150, #323, #16, #102 ) ) ;
#179 = CARTESIAN_POINT ( 'NONE',  ( -1.969999999999999973, 0.000000000000000000, -0.2499999999988150035 ) ) ;
#180 = CONICAL_SURFACE ( 'NONE', #248, 0.2499999999999069078, 0.7853981633974482790 ) ;
#181 = CIRCLE ( 'NONE', #204, 0.1250000000000000000 ) ;
#182 = DIRECTION ( 'NONE',  ( 0.000000000000000000, 0.000000000000000000, 1.000000000000000000 ) ) ;
#183 = ORIENTED_EDGE ( 'NONE', *, *, #136, .T. ) ;
#184 = DIRECTION ( 'NONE',  ( 2.731847993640825668E-16, 0.000000000000000000, 1.000000000000000000 ) ) ;
#185 = ORIENTED_EDGE ( 'NONE', *, *, #282, .T. ) ;
#186 = PLANE ( 'NONE',  #252 ) ;
#187 = AXIS2_PLACEMENT_3D ( 'NONE', #360, #206, #257 ) ;
#188 = EDGE_LOOP ( 'NONE', ( #47, #78 ) ) ;
#189 = FACE_OUTER_BOUND ( 'NONE', #129, .T. ) ;
#190 = EDGE_CURVE ( 'NONE', #162, #239, #128, .T. ) ;
#191 = VERTEX_POINT ( 'NONE', #276 ) ;
#192 = EDGE_LOOP ( 'NONE', ( #33, #11 ) ) ;
#193 = ORIENTED_EDGE ( 'NONE', *, *, #17, .T. ) ;
#194 = VECTOR ( 'NONE', #288, 39.37007874015748143 ) ;
#195 = ADVANCED_FACE ( 'NONE', ( #189 ), #277, .T. ) ;
#196 = CARTESIAN_POINT ( 'NONE',  ( -1.999999999999255262, 0.000000000000000000, -1.639108796218122113E-17 ) ) ;
#197 = CARTESIAN_POINT ( 'NONE',  ( -1.969999999998908180, 0.000000000000000000, -0.2499999999999069078 ) ) ;
#198 = ADVANCED_BREP_SHAPE_REPRESENTATION ( '03-3398', ( #68, #311 ), #85 ) ;
#199 = ADVANCED_FACE ( 'NONE', ( #160 ), #77, .T. ) ;
#200 = CARTESIAN_POINT ( 'NONE',  ( 0.000000000000000000, 0.000000000000000000, 0.000000000000000000 ) ) ;
#201 = AXIS2_PLACEMENT_3D ( 'NONE', #56, #141, #58 ) ;
#202 = PLANE ( 'NONE',  #361 ) ;
#203 = CARTESIAN_POINT ( 'NONE',  ( -1.969999999999999973, 0.000000000000000000, 0.000000000000000000 ) ) ;
#204 = AXIS2_PLACEMENT_3D ( 'NONE', #57, #355, #112 ) ;
#205 = FACE_OUTER_BOUND ( 'NONE', #307, .T. ) ;
#206 = DIRECTION ( 'NONE',  ( 1.000000000000000000, -0.000000000000000000, -0.000000000000000000 ) ) ;
#207 = EDGE_CURVE ( 'NONE', #356, #191, #80, .T. ) ;
#208 = ORIENTED_EDGE ( 'NONE', *, *, #318, .T. ) ;
#209 = CARTESIAN_POINT ( 'NONE',  ( -0.2500000000000000000, 0.000000000000000000, 0.000000000000000000 ) ) ;
#210 = AXIS2_PLACEMENT_3D ( 'NONE', #247, #319, #347 ) ;
#211 = APPLICATION_CONTEXT ( 'automotive_design' ) ;
#212 = DIRECTION ( 'NONE',  ( -1.000000000000000000, 0.000000000000000000, 0.000000000000000000 ) ) ;
#213 = ORIENTED_EDGE ( 'NONE', *, *, #50, .T. ) ;
#214 = DIRECTION ( 'NONE',  ( 0.000000000000000000, 0.000000000000000000, -1.000000000000000000 ) ) ;
#215 = EDGE_CURVE ( 'NONE', #273, #226, #144, .T. ) ;
#216 = APPLICATION_CONTEXT ( 'automotive_design' ) ;
#217 = FACE_OUTER_BOUND ( 'NONE', #305, .T. ) ;
#218 = ADVANCED_FACE ( 'NONE', ( #290 ), #358, .T. ) ;
#219 = LINE ( 'NONE', #246, #280 ) ;
#220 = PRODUCT_DEFINITION_FORMATION_WITH_SPECIFIED_SOURCE ( 'ANY', '', #67, .NOT_KNOWN. ) ;
#221 = CIRCLE ( 'NONE', #73, 0.2500000000000000000 ) ;
#222 = VERTEX_POINT ( 'NONE', #8 ) ;
#223 = DIRECTION ( 'NONE',  ( -1.000000000000000000, 0.000000000000000000, 0.000000000000000000 ) ) ;
#224 = EDGE_CURVE ( 'NONE', #239, #162, #221, .T. ) ;
#225 = EDGE_LOOP ( 'NONE', ( #155, #254, #304, #321 ) ) ;
#226 = VERTEX_POINT ( 'NONE', #309 ) ;
#227 = DIRECTION ( 'NONE',  ( 1.092739197466112142E-15, 0.000000000000000000, -1.000000000000000000 ) ) ;
#228 = EDGE_CURVE ( 'NONE', #19, #154, #46, .T. ) ;
#229 = CARTESIAN_POINT ( 'NONE',  ( 0.000000000000000000, 0.000000000000000000, 0.000000000000000000 ) ) ;
#230 = SURFACE_STYLE_USAGE ( .BOTH. , #140 ) ;
#231 = CARTESIAN_POINT ( 'NONE',  ( -1.969999999998908624, 3.061616997867242867E-17, 0.2499999999999069078 ) ) ;
#232 = DIRECTION ( 'NONE',  ( 1.000000000000000000, 0.000000000000000000, 0.000000000000000000 ) ) ;
#233 = AXIS2_PLACEMENT_3D ( 'NONE', #209, #28, #53 ) ;
#234 = LINE ( 'NONE', #231, #88 ) ;
#235 = DIRECTION ( 'NONE',  ( -1.000000000000000000, 0.000000000000000000, 0.000000000000000000 ) ) ;
#236 = AXIS2_PLACEMENT_3D ( 'NONE', #127, #122, #130 ) ;
#237 = ORIENTED_EDGE ( 'NONE', *, *, #24, .T. ) ;
#238 = CARTESIAN_POINT ( 'NONE',  ( 0.09379999999999999449, 0.000000000000000000, -0.2500000000000000000 ) ) ;
#239 = VERTEX_POINT ( 'NONE', #238 ) ;
#240 = DIRECTION ( 'NONE',  ( -1.000000000000000000, 0.000000000000000000, 1.365923996820413080E-16 ) ) ;
#241 = FACE_OUTER_BOUND ( 'NONE', #192, .T. ) ;
#242 = VERTEX_POINT ( 'NONE', #317 ) ;
#243 = DIRECTION ( 'NONE',  ( 0.000000000000000000, 0.000000000000000000, -1.000000000000000000 ) ) ;
#244 = ADVANCED_FACE ( 'NONE', ( #170 ), #180, .T. ) ;
#245 = LINE ( 'NONE', #324, #6 ) ;
#246 = CARTESIAN_POINT ( 'NONE',  ( 0.000000000000000000, 1.530808498934191509E-17, -0.1250000000000000000 ) ) ;
#247 = CARTESIAN_POINT ( 'NONE',  ( -0.4664999999999999702, 0.000000000000000000, 0.000000000000000000 ) ) ;
#248 = AXIS2_PLACEMENT_3D ( 'NONE', #146, #93, #227 ) ;
#249 = EDGE_CURVE ( 'NONE', #356, #283, #167, .T. ) ;
#250 = DIMENSIONAL_EXPONENTS ( 1.000000000000000000, 0.000000000000000000, 0.000000000000000000, 0.000000000000000000, 0.000000000000000000, 0.000000000000000000, 0.000000000000000000 ) ;
#251 = ADVANCED_FACE ( 'NONE', ( #21 ), #264, .T. ) ;
#252 = AXIS2_PLACEMENT_3D ( 'NONE', #99, #295, #243 ) ;
#253 = CIRCLE ( 'NONE', #352, 0.2500000000000000000 ) ;
#254 = ORIENTED_EDGE ( 'NONE', *, *, #1, .T. ) ;
#255 = CARTESIAN_POINT ( 'NONE',  ( -0.2500000000000000000, 3.061616997868383018E-17, -0.2500000000000000000 ) ) ;
#256 = DIRECTION ( 'NONE',  ( 1.000000000000000000, -0.000000000000000000, 5.463695987330561698E-16 ) ) ;
#257 = DIRECTION ( 'NONE',  ( 0.000000000000000000, 0.000000000000000000, 1.000000000000000000 ) ) ;
#258 = ADVANCED_FACE ( 'NONE', ( #4 ), #132, .T. ) ;
#259 = PRESENTATION_STYLE_ASSIGNMENT (( #230 ) ) ;
#260 = DIRECTION ( 'NONE',  ( 0.7071067811865472397, 8.659560562354934091E-17, 0.7071067811865479058 ) ) ;
#261 = VECTOR ( 'NONE', #289, 39.37007874015748143 ) ;
#262 = PRODUCT_CONTEXT ( 'NONE', #216, 'mechanical' ) ;
#263 = DIRECTION ( 'NONE',  ( 1.000000000000000000, 0.000000000000000000, 0.000000000000000000 ) ) ;
#264 = CYLINDRICAL_SURFACE ( 'NONE', #348, 0.1250000000000000000 ) ;
#265 = CARTESIAN_POINT ( 'NONE',  ( -0.2500000000000000000, 0.000000000000000000, 0.2500000000000000000 ) ) ;
#266 = AXIS2_PLACEMENT_3D ( 'NONE', #158, #346, #214 ) ;
#267 = ORIENTED_EDGE ( 'NONE', *, *, #272, .T. ) ;
#268 = DIRECTION ( 'NONE',  ( 0.000000000000000000, 0.000000000000000000, 1.000000000000000000 ) ) ;
#269 = LENGTH_MEASURE_WITH_UNIT ( LENGTH_MEASURE( 0.02539999999999999897 ), #312 );
#270 = EDGE_LOOP ( 'NONE', ( #157, #75, #29, #103 ) ) ;
#271 = DIRECTION ( 'NONE',  ( -1.000000000000000000, 0.000000000000000000, 0.000000000000000000 ) ) ;
#272 = EDGE_CURVE ( 'NONE', #222, #226, #234, .T. ) ;
#273 = VERTEX_POINT ( 'NONE', #139 ) ;
#274 =( GEOMETRIC_REPRESENTATION_CONTEXT ( 3 ) GLOBAL_UNCERTAINTY_ASSIGNED_CONTEXT ( ( #5 ) ) GLOBAL_UNIT_ASSIGNED_CONTEXT ( ( #156, #94, #322 ) ) REPRESENTATION_CONTEXT ( 'NONE', 'WORKASPACE' ) );
#275 = ORIENTED_EDGE ( 'NONE', *, *, #1, .F. ) ;
#276 = CARTESIAN_POINT ( 'NONE',  ( -0.2499936490498380071, 0.000000000000000000, 0.1249999999999999584 ) ) ;
#277 = CYLINDRICAL_SURFACE ( 'NONE', #325, 0.2500000000000000000 ) ;
#278 = EDGE_CURVE ( 'NONE', #294, #96, #20, .T. ) ;
#279 = CIRCLE ( 'NONE', #210, 0.2500000000000000000 ) ;
#280 = VECTOR ( 'NONE', #271, 39.37007874015748143 ) ;
#281 = ORIENTED_EDGE ( 'NONE', *, *, #215, .T. ) ;
#282 = EDGE_CURVE ( 'NONE', #226, #76, #148, .T. ) ;
#283 = VERTEX_POINT ( 'NONE', #82 ) ;
#284 = AXIS2_PLACEMENT_3D ( 'NONE', #229, #174, #335 ) ;
#285 = AXIS2_PLACEMENT_3D ( 'NONE', #332, #359, #334 ) ;
#286 = DIRECTION ( 'NONE',  ( -1.000000000000000000, 0.000000000000000000, 0.000000000000000000 ) ) ;
#287 = FILL_AREA_STYLE_COLOUR ( '', #109 ) ;
#288 = DIRECTION ( 'NONE',  ( 1.000000000000000000, 0.000000000000000000, 0.000000000000000000 ) ) ;
#289 = DIRECTION ( 'NONE',  ( -1.000000000000000000, 0.000000000000000000, 0.000000000000000000 ) ) ;
#290 = FACE_OUTER_BOUND ( 'NONE', #225, .T. ) ;
#291 = CIRCLE ( 'NONE', #143, 0.2199999999995600197 ) ;
#292 = DIRECTION ( 'NONE',  ( -1.000000000000000000, -0.000000000000000000, -0.000000000000000000 ) ) ;
#293 = DIRECTION ( 'NONE',  ( 1.000000000000000000, -0.000000000000000000, -0.000000000000000000 ) ) ;
#294 = VERTEX_POINT ( 'NONE', #111 ) ;
#295 = DIRECTION ( 'NONE',  ( 1.000000000000000000, 0.000000000000000000, 0.000000000000000000 ) ) ;
#296 = EDGE_CURVE ( 'NONE', #294, #162, #177, .T. ) ;
#297 = ORIENTED_EDGE ( 'NONE', *, *, #296, .T. ) ;
#298 =( LENGTH_UNIT ( ) NAMED_UNIT ( * ) SI_UNIT ( $, .METRE. ) );
#299 = AXIS2_PLACEMENT_3D ( 'NONE', #345, #145, #176 ) ;
#300 = ORIENTED_EDGE ( 'NONE', *, *, #249, .T. ) ;
#301 = LENGTH_MEASURE_WITH_UNIT ( LENGTH_MEASURE( 0.02539999999999999897 ), #298 );
#302 = VECTOR ( 'NONE', #74, 39.37007874015748854 ) ;
#303 = DIRECTION ( 'NONE',  ( 1.000000000000000000, 0.000000000000000000, 0.000000000000000000 ) ) ;
#304 = ORIENTED_EDGE ( 'NONE', *, *, #329, .T. ) ;
#305 = EDGE_LOOP ( 'NONE', ( #44, #300, #316, #137 ) ) ;
#306 = EDGE_CURVE ( 'NONE', #242, #76, #310, .T. ) ;
#307 = EDGE_LOOP ( 'NONE', ( #161, #45 ) ) ;
#308 = VECTOR ( 'NONE', #115, 39.37007874015748143 ) ;
#309 = CARTESIAN_POINT ( 'NONE',  ( -1.969999999999999973, 3.061616997853877222E-17, 0.2499999999988155308 ) ) ;
#310 = LINE ( 'NONE', #197, #32 ) ;
#311 = AXIS2_PLACEMENT_3D ( 'NONE', #172, #91, #232 ) ;
#312 =( LENGTH_UNIT ( ) NAMED_UNIT ( * ) SI_UNIT ( $, .METRE. ) );
#313 = DIRECTION ( 'NONE',  ( 1.000000000000000000, 0.000000000000000000, 0.000000000000000000 ) ) ;
#314 = CARTESIAN_POINT ( 'NONE',  ( -0.2499936490498380071, 0.000000000000000000, -2.957312202271857186E-17 ) ) ;
#315 = DIRECTION ( 'NONE',  ( 0.000000000000000000, 0.000000000000000000, 1.000000000000000000 ) ) ;
#316 = ORIENTED_EDGE ( 'NONE', *, *, #336, .F. ) ;
#317 = CARTESIAN_POINT ( 'NONE',  ( -1.999999999999255262, 0.000000000000000000, -0.2199999999995600197 ) ) ;
#318 = EDGE_CURVE ( 'NONE', #154, #19, #38, .T. ) ;
#319 = DIRECTION ( 'NONE',  ( -1.000000000000000000, 0.000000000000000000, 0.000000000000000000 ) ) ;
#320 = PRODUCT_DEFINITION_SHAPE ( 'NONE', 'NONE',  #331 ) ;
#321 = ORIENTED_EDGE ( 'NONE', *, *, #215, .F. ) ;
#322 =( NAMED_UNIT ( * ) SI_UNIT ( $, .STERADIAN. ) SOLID_ANGLE_UNIT ( ) );
#323 = ORIENTED_EDGE ( 'NONE', *, *, #228, .T. ) ;
#324 = CARTESIAN_POINT ( 'NONE',  ( 0.000000000000000000, 0.000000000000000000, 0.1250000000000000000 ) ) ;
#325 = AXIS2_PLACEMENT_3D ( 'NONE', #326, #303, #42 ) ;
#326 = CARTESIAN_POINT ( 'NONE',  ( 0.000000000000000000, 0.000000000000000000, 0.000000000000000000 ) ) ;
#327 = PRODUCT_RELATED_PRODUCT_CATEGORY ( 'part', '', ( #67 ) ) ;
#328 = ORIENTED_EDGE ( 'NONE', *, *, #272, .F. ) ;
#329 = EDGE_CURVE ( 'NONE', #76, #226, #116, .T. ) ;
#330 = CIRCLE ( 'NONE', #285, 0.2500000000000000000 ) ;
#331 = PRODUCT_DEFINITION ( 'UNKNOWN', '', #220, #83 ) ;
#332 = CARTESIAN_POINT ( 'NONE',  ( 0.000000000000000000, 0.000000000000000000, 0.000000000000000000 ) ) ;
#333 = DIRECTION ( 'NONE',  ( 0.000000000000000000, 0.000000000000000000, -1.000000000000000000 ) ) ;
#334 = DIRECTION ( 'NONE',  ( 0.000000000000000000, 0.000000000000000000, -1.000000000000000000 ) ) ;
#335 = DIRECTION ( 'NONE',  ( 0.000000000000000000, 0.000000000000000000, 1.000000000000000000 ) ) ;
#336 = EDGE_CURVE ( 'NONE', #273, #283, #253, .T. ) ;
#337 = DIRECTION ( 'NONE',  ( 0.000000000000000000, 0.000000000000000000, -1.000000000000000000 ) ) ;
#338 = CARTESIAN_POINT ( 'NONE',  ( 0.000000000000000000, 3.061616997868383018E-17, 0.2500000000000000000 ) ) ;
#339 = AXIS2_PLACEMENT_3D ( 'NONE', #203, #293, #30 ) ;
#340 = DIRECTION ( 'NONE',  ( 1.000000000000000000, -0.000000000000000000, 5.463695987330561698E-16 ) ) ;
#341 = DIRECTION ( 'NONE',  ( 1.000000000000000000, 0.000000000000000000, 0.000000000000000000 ) ) ;
#342 = ORIENTED_EDGE ( 'NONE', *, *, #224, .F. ) ;
#343 = ORIENTED_EDGE ( 'NONE', *, *, #49, .F. ) ;
#344 = CARTESIAN_POINT ( 'NONE',  ( -0.4665000000002470504, 0.000000000000000000, 0.000000000000000000 ) ) ;
#345 = CARTESIAN_POINT ( 'NONE',  ( -2.000000000000000000, 0.000000000000000000, 0.000000000000000000 ) ) ;
#346 = DIRECTION ( 'NONE',  ( -1.000000000000000000, -0.000000000000000000, -0.000000000000000000 ) ) ;
#347 = DIRECTION ( 'NONE',  ( 0.000000000000000000, 0.000000000000000000, 1.000000000000000000 ) ) ;
#348 = AXIS2_PLACEMENT_3D ( 'NONE', #169, #286, #90 ) ;
#349 = CARTESIAN_POINT ( 'NONE',  ( 0.09379999999999999449, 3.061616997868383018E-17, 0.2500000000000000000 ) ) ;
#350 = ORIENTED_EDGE ( 'NONE', *, *, #66, .T. ) ;
#351 = ADVANCED_FACE ( 'NONE', ( #241 ), #153, .T. ) ;
#352 = AXIS2_PLACEMENT_3D ( 'NONE', #34, #235, #182 ) ;
#353 = AXIS2_PLACEMENT_3D ( 'NONE', #196, #340, #337 ) ;
#354 = ORIENTED_EDGE ( 'NONE', *, *, #282, .F. ) ;
#355 = DIRECTION ( 'NONE',  ( -1.000000000000000000, 0.000000000000000000, 1.365923996820413080E-16 ) ) ;
#356 = VERTEX_POINT ( 'NONE', #121 ) ;
#357 = FACE_BOUND ( 'NONE', #188, .T. ) ;
#358 = CYLINDRICAL_SURFACE ( 'NONE', #233, 0.2500000000000000000 ) ;
#359 = DIRECTION ( 'NONE',  ( 1.000000000000000000, 0.000000000000000000, 0.000000000000000000 ) ) ;
#360 = CARTESIAN_POINT ( 'NONE',  ( -1.969999999999999973, 0.000000000000000000, 0.000000000000000000 ) ) ;
#361 = AXIS2_PLACEMENT_3D ( 'NONE', #55, #313, #107 ) ;
ENDSEC;
END-ISO-10303-21;
