ISO-10303-21;
HEADER;
FILE_DESCRIPTION (( 'STEP AP214' ),
    '1' );
FILE_NAME ('03-3399.STEP',
    '2025-07-09T15:23:51',
    ( '' ),
    ( '' ),
    'SwSTEP 2.0',
    'SolidWorks 2023',
    '' );
FILE_SCHEMA (( 'AUTOMOTIVE_DESIGN' ));
ENDSEC;

DATA;
#1 = CARTESIAN_POINT ( 'NONE',  ( -0.2499936490498380071, 0.000000000000000000, 0.1249999999999999584 ) ) ;
#2 = DIRECTION ( 'NONE',  ( 0.000000000000000000, 0.000000000000000000, 1.000000000000000000 ) ) ;
#3 = AXIS2_PLACEMENT_3D ( 'NONE', #22, #14, #291 ) ;
#4 = DIRECTION ( 'NONE',  ( 0.000000000000000000, 0.000000000000000000, -1.000000000000000000 ) ) ;
#5 = ORIENTED_EDGE ( 'NONE', *, *, #279, .F. ) ;
#6 = DIRECTION ( 'NONE',  ( -1.000000000000000000, 0.000000000000000000, 0.000000000000000000 ) ) ;
#7 = VERTEX_POINT ( 'NONE', #239 ) ;
#8 = DIRECTION ( 'NONE',  ( 0.000000000000000000, 0.000000000000000000, -1.000000000000000000 ) ) ;
#9 = ORIENTED_EDGE ( 'NONE', *, *, #107, .T. ) ;
#10 = AXIS2_PLACEMENT_3D ( 'NONE', #50, #44, #234 ) ;
#11 = DIRECTION ( 'NONE',  ( 0.000000000000000000, 0.000000000000000000, 1.000000000000000000 ) ) ;
#12 = EDGE_LOOP ( 'NONE', ( #252, #65 ) ) ;
#13 = EDGE_CURVE ( 'NONE', #7, #336, #60, .T. ) ;
#14 = DIRECTION ( 'NONE',  ( 1.000000000000000000, -0.000000000000000000, -0.000000000000000000 ) ) ;
#15 = VERTEX_POINT ( 'NONE', #23 ) ;
#16 = FILL_AREA_STYLE_COLOUR ( '', #138 ) ;
#17 = CARTESIAN_POINT ( 'NONE',  ( -0.4665000000002471059, 3.061616997894649621E-17, -0.2500000000021448399 ) ) ;
#18 = CARTESIAN_POINT ( 'NONE',  ( -1.999999999999255262, 0.000000000000000000, -0.2199999999995600197 ) ) ;
#19 = AXIS2_PLACEMENT_3D ( 'NONE', #337, #87, #4 ) ;
#20 = AXIS2_PLACEMENT_3D ( 'NONE', #325, #82, #192 ) ;
#21 = DIRECTION ( 'NONE',  ( 0.000000000000000000, 0.000000000000000000, -1.000000000000000000 ) ) ;
#22 = CARTESIAN_POINT ( 'NONE',  ( -1.969999999999999973, 0.000000000000000000, 0.000000000000000000 ) ) ;
#23 = CARTESIAN_POINT ( 'NONE',  ( -1.999999999999255262, 2.877919977993585991E-17, 0.2199999999995600197 ) ) ;
#24 = EDGE_CURVE ( 'NONE', #290, #80, #316, .T. ) ;
#25 = CARTESIAN_POINT ( 'NONE',  ( 0.000000000000000000, 0.000000000000000000, 0.000000000000000000 ) ) ;
#26 = CARTESIAN_POINT ( 'NONE',  ( 0.000000000000000000, 0.000000000000000000, 0.000000000000000000 ) ) ;
#27 = VECTOR ( 'NONE', #129, 39.37007874015748143 ) ;
#28 = CIRCLE ( 'NONE', #10, 0.2500000000000000000 ) ;
#29 = EDGE_CURVE ( 'NONE', #290, #7, #321, .T. ) ;
#30 = DIRECTION ( 'NONE',  ( 0.000000000000000000, 0.000000000000000000, 1.000000000000000000 ) ) ;
#31 = CARTESIAN_POINT ( 'NONE',  ( 0.000000000000000000, 0.000000000000000000, 0.1250000000000000000 ) ) ;
#32 = PRODUCT_DEFINITION_CONTEXT ( 'detailed design', #214, 'design' ) ;
#33 = FACE_OUTER_BOUND ( 'NONE', #167, .T. ) ;
#34 = CONICAL_SURFACE ( 'NONE', #326, 0.2499999999999069078, 0.7853981633974482790 ) ;
#35 =( GEOMETRIC_REPRESENTATION_CONTEXT ( 3 ) GLOBAL_UNCERTAINTY_ASSIGNED_CONTEXT ( ( #199 ) ) GLOBAL_UNIT_ASSIGNED_CONTEXT ( ( #354, #211, #183 ) ) REPRESENTATION_CONTEXT ( 'NONE', 'WORKASPACE' ) );
#36 = DIRECTION ( 'NONE',  ( -1.000000000000000000, 0.000000000000000000, 0.000000000000000000 ) ) ;
#37 = EDGE_CURVE ( 'NONE', #286, #151, #356, .T. ) ;
#38 = ORIENTED_EDGE ( 'NONE', *, *, #29, .T. ) ;
#39 = DIRECTION ( 'NONE',  ( 0.000000000000000000, 0.000000000000000000, 1.000000000000000000 ) ) ;
#40 = EDGE_LOOP ( 'NONE', ( #209, #361, #257, #176 ) ) ;
#41 =( LENGTH_UNIT ( ) NAMED_UNIT ( * ) SI_UNIT ( $, .METRE. ) );
#42 = VERTEX_POINT ( 'NONE', #265 ) ;
#43 = CONICAL_SURFACE ( 'NONE', #141, 0.2500000000021448399, 0.5235987755971300839 ) ;
#44 = DIRECTION ( 'NONE',  ( -1.000000000000000000, 0.000000000000000000, 0.000000000000000000 ) ) ;
#45 = ORIENTED_EDGE ( 'NONE', *, *, #37, .F. ) ;
#46 = DIRECTION ( 'NONE',  ( -0.8660254037850230180, 0.000000000000000000, 0.4999999999989879762 ) ) ;
#47 = CARTESIAN_POINT ( 'NONE',  ( 0.1250000000000000000, 0.000000000000000000, 0.000000000000000000 ) ) ;
#48 = CARTESIAN_POINT ( 'NONE',  ( 0.000000000000000000, 1.530808498934191509E-17, -0.1250000000000000000 ) ) ;
#49 = DIRECTION ( 'NONE',  ( 1.000000000000000000, 0.000000000000000000, 0.000000000000000000 ) ) ;
#50 = CARTESIAN_POINT ( 'NONE',  ( -0.4664999999999999702, 0.000000000000000000, 0.000000000000000000 ) ) ;
#51 =( GEOMETRIC_REPRESENTATION_CONTEXT ( 3 ) GLOBAL_UNCERTAINTY_ASSIGNED_CONTEXT ( ( #171 ) ) GLOBAL_UNIT_ASSIGNED_CONTEXT ( ( #327, #140, #108 ) ) REPRESENTATION_CONTEXT ( 'NONE', 'WORKASPACE' ) );
#52 = EDGE_CURVE ( 'NONE', #336, #7, #66, .T. ) ;
#53 = DIRECTION ( 'NONE',  ( 0.000000000000000000, 0.000000000000000000, -1.000000000000000000 ) ) ;
#54 = PRODUCT_CONTEXT ( 'NONE', #358, 'mechanical' ) ;
#55 = DIRECTION ( 'NONE',  ( -1.000000000000000000, 0.000000000000000000, 0.000000000000000000 ) ) ;
#56 = ADVANCED_FACE ( 'NONE', ( #142 ), #43, .T. ) ;
#57 = AXIS2_PLACEMENT_3D ( 'NONE', #251, #330, #94 ) ;
#58 = ORIENTED_EDGE ( 'NONE', *, *, #52, .T. ) ;
#59 = DIRECTION ( 'NONE',  ( 0.000000000000000000, 0.000000000000000000, 1.000000000000000000 ) ) ;
#60 = CIRCLE ( 'NONE', #114, 0.2500000000000000000 ) ;
#61 = DIRECTION ( 'NONE',  ( -1.000000000000000000, 0.000000000000000000, 1.365923996820413080E-16 ) ) ;
#62 = CARTESIAN_POINT ( 'NONE',  ( -1.969999999998908624, 3.061616997867242867E-17, 0.2499999999999069078 ) ) ;
#63 = ADVANCED_FACE ( 'NONE', ( #223 ), #163, .T. ) ;
#64 = FACE_OUTER_BOUND ( 'NONE', #69, .T. ) ;
#65 = ORIENTED_EDGE ( 'NONE', *, *, #13, .F. ) ;
#66 = CIRCLE ( 'NONE', #360, 0.2500000000000000000 ) ;
#67 = CARTESIAN_POINT ( 'NONE',  ( 0.000000000000000000, 0.000000000000000000, 0.1250000000000000000 ) ) ;
#68 = ORIENTED_EDGE ( 'NONE', *, *, #346, .T. ) ;
#69 = EDGE_LOOP ( 'NONE', ( #123, #315, #297, #71 ) ) ;
#70 = CARTESIAN_POINT ( 'NONE',  ( 0.000000000000000000, 0.000000000000000000, 0.000000000000000000 ) ) ;
#71 = ORIENTED_EDGE ( 'NONE', *, *, #298, .F. ) ;
#72 = VECTOR ( 'NONE', #277, 39.37007874015748143 ) ;
#73 = CARTESIAN_POINT ( 'NONE',  ( 0.000000000000000000, 3.061616997868383018E-17, 0.2500000000000000000 ) ) ;
#74 = LINE ( 'NONE', #48, #79 ) ;
#75 = CARTESIAN_POINT ( 'NONE',  ( 0.1250000000000000000, 0.000000000000000000, 0.000000000000000000 ) ) ;
#76 = PRODUCT ( '03-3399', '03-3399', '', ( #54 ) ) ;
#77 = CARTESIAN_POINT ( 'NONE',  ( -0.4665000000002470504, 0.000000000000000000, 0.000000000000000000 ) ) ;
#78 = AXIS2_PLACEMENT_3D ( 'NONE', #152, #351, #11 ) ;
#79 = VECTOR ( 'NONE', #185, 39.37007874015748143 ) ;
#80 = VERTEX_POINT ( 'NONE', #274 ) ;
#81 = EDGE_CURVE ( 'NONE', #80, #290, #288, .T. ) ;
#82 = DIRECTION ( 'NONE',  ( 0.000000000000000000, 0.000000000000000000, 1.000000000000000000 ) ) ;
#83 = PRODUCT_DEFINITION_FORMATION_WITH_SPECIFIED_SOURCE ( 'ANY', '', #76, .NOT_KNOWN. ) ;
#84 = ORIENTED_EDGE ( 'NONE', *, *, #219, .F. ) ;
#85 = ADVANCED_FACE ( 'NONE', ( #136 ), #241, .T. ) ;
#86 = DIRECTION ( 'NONE',  ( 1.000000000000000000, 0.000000000000000000, 0.000000000000000000 ) ) ;
#87 = DIRECTION ( 'NONE',  ( 1.000000000000000000, 0.000000000000000000, 0.000000000000000000 ) ) ;
#88 = LINE ( 'NONE', #173, #72 ) ;
#89 = EDGE_CURVE ( 'NONE', #42, #338, #261, .T. ) ;
#90 = FACE_OUTER_BOUND ( 'NONE', #207, .T. ) ;
#91 = ORIENTED_EDGE ( 'NONE', *, *, #102, .T. ) ;
#92 = CARTESIAN_POINT ( 'NONE',  ( -1.999999999999255262, 0.000000000000000000, -1.639108796218122113E-17 ) ) ;
#93 = VERTEX_POINT ( 'NONE', #237 ) ;
#94 = DIRECTION ( 'NONE',  ( 2.731847993640825668E-16, 0.000000000000000000, 1.000000000000000000 ) ) ;
#95 = VERTEX_POINT ( 'NONE', #1 ) ;
#96 = CARTESIAN_POINT ( 'NONE',  ( 0.000000000000000000, 0.000000000000000000, 0.000000000000000000 ) ) ;
#97 = ORIENTED_EDGE ( 'NONE', *, *, #166, .F. ) ;
#98 = FACE_OUTER_BOUND ( 'NONE', #40, .T. ) ;
#99 = AXIS2_PLACEMENT_3D ( 'NONE', #283, #149, #8 ) ;
#100 = LENGTH_MEASURE_WITH_UNIT ( LENGTH_MEASURE( 0.02539999999999999897 ), #41 );
#101 = EDGE_LOOP ( 'NONE', ( #127, #68, #154, #292 ) ) ;
#102 = EDGE_CURVE ( 'NONE', #282, #162, #146, .T. ) ;
#103 = CYLINDRICAL_SURFACE ( 'NONE', #210, 0.2500000000000000000 ) ;
#104 = ORIENTED_EDGE ( 'NONE', *, *, #81, .T. ) ;
#105 = LENGTH_MEASURE_WITH_UNIT ( LENGTH_MEASURE( 0.02539999999999999897 ), #271 );
#106 = DIRECTION ( 'NONE',  ( 1.000000000000000000, 0.000000000000000000, 0.000000000000000000 ) ) ;
#107 = EDGE_CURVE ( 'NONE', #42, #95, #218, .T. ) ;
#108 =( NAMED_UNIT ( * ) SI_UNIT ( $, .STERADIAN. ) SOLID_ANGLE_UNIT ( ) );
#109 = ORIENTED_EDGE ( 'NONE', *, *, #24, .T. ) ;
#110 = VECTOR ( 'NONE', #86, 39.37007874015748143 ) ;
#111 = EDGE_LOOP ( 'NONE', ( #104, #38, #312, #235 ) ) ;
#112 = FACE_OUTER_BOUND ( 'NONE', #12, .T. ) ;
#113 = PLANE ( 'NONE',  #19 ) ;
#114 = AXIS2_PLACEMENT_3D ( 'NONE', #75, #296, #184 ) ;
#115 = AXIS2_PLACEMENT_3D ( 'NONE', #359, #194, #159 ) ;
#116 = LINE ( 'NONE', #226, #174 ) ;
#117 = CYLINDRICAL_SURFACE ( 'NONE', #220, 0.2500000000000000000 ) ;
#118 = ORIENTED_EDGE ( 'NONE', *, *, #195, .F. ) ;
#119 = PRODUCT_RELATED_PRODUCT_CATEGORY ( 'part', '', ( #76 ) ) ;
#120 = CARTESIAN_POINT ( 'NONE',  ( -0.2499936490498380071, 0.000000000000000000, -2.957312202271857186E-17 ) ) ;
#121 = CLOSED_SHELL ( 'NONE', ( #232, #56, #128, #301, #63, #85, #135, #340, #139, #157, #322, #357, #169 ) ) ;
#122 = AXIS2_PLACEMENT_3D ( 'NONE', #278, #6, #2 ) ;
#123 = ORIENTED_EDGE ( 'NONE', *, *, #263, .T. ) ;
#124 = CYLINDRICAL_SURFACE ( 'NONE', #276, 0.1250000000000000000 ) ;
#125 = FILL_AREA_STYLE ('',( #16 ) ) ;
#126 = PRODUCT_DEFINITION_SHAPE ( 'NONE', 'NONE',  #243 ) ;
#127 = ORIENTED_EDGE ( 'NONE', *, *, #150, .F. ) ;
#128 = ADVANCED_FACE ( 'NONE', ( #64 ), #34, .T. ) ;
#129 = DIRECTION ( 'NONE',  ( -0.8660254037850231290, 6.123233995724369826E-17, -0.4999999999989876986 ) ) ;
#130 = AXIS2_PLACEMENT_3D ( 'NONE', #224, #341, #39 ) ;
#131 = DIRECTION ( 'NONE',  ( -1.000000000000000000, 0.000000000000000000, 0.000000000000000000 ) ) ;
#132 = EDGE_LOOP ( 'NONE', ( #97, #254, #147, #221 ) ) ;
#133 = SURFACE_SIDE_STYLE ('',( #348 ) ) ;
#134 = CARTESIAN_POINT ( 'NONE',  ( 0.000000000000000000, 3.061616997868383018E-17, 0.2500000000000000000 ) ) ;
#135 = ADVANCED_FACE ( 'NONE', ( #33 ), #304, .T. ) ;
#136 = FACE_OUTER_BOUND ( 'NONE', #101, .T. ) ;
#137 = AXIS2_PLACEMENT_3D ( 'NONE', #240, #55, #323 ) ;
#138 = COLOUR_RGB ( '',0.6274509803921568540, 0.6274509803921568540, 0.6274509803921568540 ) ;
#139 = ADVANCED_FACE ( 'NONE', ( #334 ), #246, .T. ) ;
#140 =( NAMED_UNIT ( * ) PLANE_ANGLE_UNIT ( ) SI_UNIT ( $, .RADIAN. ) );
#141 = AXIS2_PLACEMENT_3D ( 'NONE', #77, #186, #269 ) ;
#142 = FACE_OUTER_BOUND ( 'NONE', #342, .T. ) ;
#143 = CARTESIAN_POINT ( 'NONE',  ( -0.2499936490498380071, 0.000000000000000000, -2.957312202271857186E-17 ) ) ;
#144 = DIRECTION ( 'NONE',  ( 0.7071067811865472397, 8.659560562354934091E-17, 0.7071067811865479058 ) ) ;
#145 = CARTESIAN_POINT ( 'NONE',  ( -2.000000000000000000, 0.000000000000000000, 0.000000000000000000 ) ) ;
#146 = CIRCLE ( 'NONE', #130, 0.2500000000000000000 ) ;
#147 = ORIENTED_EDGE ( 'NONE', *, *, #298, .T. ) ;
#148 = DIRECTION ( 'NONE',  ( 0.000000000000000000, 0.000000000000000000, 1.000000000000000000 ) ) ;
#149 = DIRECTION ( 'NONE',  ( 1.000000000000000000, -0.000000000000000000, 5.463695987330561698E-16 ) ) ;
#150 = EDGE_CURVE ( 'NONE', #338, #282, #88, .T. ) ;
#151 = VERTEX_POINT ( 'NONE', #31 ) ;
#152 = CARTESIAN_POINT ( 'NONE',  ( 0.000000000000000000, 0.000000000000000000, 0.000000000000000000 ) ) ;
#153 = CIRCLE ( 'NONE', #264, 0.2500000000000000000 ) ;
#154 = ORIENTED_EDGE ( 'NONE', *, *, #195, .T. ) ;
#155 = FACE_OUTER_BOUND ( 'NONE', #350, .T. ) ;
#156 = ORIENTED_EDGE ( 'NONE', *, *, #81, .F. ) ;
#157 = ADVANCED_FACE ( 'NONE', ( #90 ), #168, .T. ) ;
#158 = CARTESIAN_POINT ( 'NONE',  ( 0.000000000000000000, 0.000000000000000000, 0.000000000000000000 ) ) ;
#159 = DIRECTION ( 'NONE',  ( 0.000000000000000000, 0.000000000000000000, 1.000000000000000000 ) ) ;
#160 = ORIENTED_EDGE ( 'NONE', *, *, #150, .T. ) ;
#161 = DIRECTION ( 'NONE',  ( 0.7071067811865479058, 0.000000000000000000, -0.7071067811865472397 ) ) ;
#162 = VERTEX_POINT ( 'NONE', #198 ) ;
#163 = CYLINDRICAL_SURFACE ( 'NONE', #299, 0.2500000000000000000 ) ;
#164 = AXIS2_PLACEMENT_3D ( 'NONE', #215, #49, #353 ) ;
#165 = AXIS2_PLACEMENT_3D ( 'NONE', #179, #345, #289 ) ;
#166 = EDGE_CURVE ( 'NONE', #15, #162, #249, .T. ) ;
#167 = EDGE_LOOP ( 'NONE', ( #328, #9, #201, #329 ) ) ;
#168 = PLANE ( 'NONE',  #272 ) ;
#169 = ADVANCED_FACE ( 'NONE', ( #112 ), #113, .T. ) ;
#170 = DIRECTION ( 'NONE',  ( 1.092739197466112142E-15, 0.000000000000000000, -1.000000000000000000 ) ) ;
#171 = UNCERTAINTY_MEASURE_WITH_UNIT (LENGTH_MEASURE( 1.000000000000000082E-05 ), #327, 'distance_accuracy_value', 'NONE');
#172 = DIRECTION ( 'NONE',  ( -1.000000000000000000, 0.000000000000000000, 0.000000000000000000 ) ) ;
#173 = CARTESIAN_POINT ( 'NONE',  ( -0.2500000000000000000, 3.061616997868383018E-17, -0.2500000000000000000 ) ) ;
#174 = VECTOR ( 'NONE', #280, 39.37007874015748143 ) ;
#175 = STYLED_ITEM ( 'NONE', ( #293 ), #352 ) ;
#176 = ORIENTED_EDGE ( 'NONE', *, *, #255, .F. ) ;
#177 = DIRECTION ( 'NONE',  ( -1.000000000000000000, 0.000000000000000000, 0.000000000000000000 ) ) ;
#178 = FACE_BOUND ( 'NONE', #188, .T. ) ;
#179 = CARTESIAN_POINT ( 'NONE',  ( -1.969999999998908402, 0.000000000000000000, 0.000000000000000000 ) ) ;
#180 = VECTOR ( 'NONE', #46, 39.37007874015748854 ) ;
#181 = ORIENTED_EDGE ( 'NONE', *, *, #190, .T. ) ;
#182 = DIRECTION ( 'NONE',  ( 1.000000000000000000, 0.000000000000000000, 0.000000000000000000 ) ) ;
#183 =( NAMED_UNIT ( * ) SI_UNIT ( $, .STERADIAN. ) SOLID_ANGLE_UNIT ( ) );
#184 = DIRECTION ( 'NONE',  ( 0.000000000000000000, 0.000000000000000000, -1.000000000000000000 ) ) ;
#185 = DIRECTION ( 'NONE',  ( -1.000000000000000000, 0.000000000000000000, 0.000000000000000000 ) ) ;
#186 = DIRECTION ( 'NONE',  ( -1.000000000000000000, 0.000000000000000000, 1.365923996820413080E-16 ) ) ;
#187 = CONICAL_SURFACE ( 'NONE', #165, 0.2499999999999069078, 0.7853981633974482790 ) ;
#188 = EDGE_LOOP ( 'NONE', ( #229, #45 ) ) ;
#189 = DIRECTION ( 'NONE',  ( 0.000000000000000000, 0.000000000000000000, -1.000000000000000000 ) ) ;
#190 = EDGE_CURVE ( 'NONE', #93, #338, #153, .T. ) ;
#191 = AXIS2_PLACEMENT_3D ( 'NONE', #26, #355, #217 ) ;
#192 = DIRECTION ( 'NONE',  ( 1.000000000000000000, 0.000000000000000000, 0.000000000000000000 ) ) ;
#193 = ORIENTED_EDGE ( 'NONE', *, *, #24, .F. ) ;
#194 = DIRECTION ( 'NONE',  ( -1.000000000000000000, 0.000000000000000000, 0.000000000000000000 ) ) ;
#195 = EDGE_CURVE ( 'NONE', #93, #162, #335, .T. ) ;
#196 = VECTOR ( 'NONE', #305, 39.37007874015748143 ) ;
#197 = CARTESIAN_POINT ( 'NONE',  ( -1.969999999998908402, 0.000000000000000000, 0.000000000000000000 ) ) ;
#198 = CARTESIAN_POINT ( 'NONE',  ( -1.969999999999999973, 3.061616997853877222E-17, 0.2499999999988155308 ) ) ;
#199 = UNCERTAINTY_MEASURE_WITH_UNIT (LENGTH_MEASURE( 1.000000000000000082E-05 ), #354, 'distance_accuracy_value', 'NONE');
#200 = DIRECTION ( 'NONE',  ( 1.000000000000000000, -0.000000000000000000, 5.463695987330561698E-16 ) ) ;
#201 = ORIENTED_EDGE ( 'NONE', *, *, #279, .T. ) ;
#202 = DIRECTION ( 'NONE',  ( 0.000000000000000000, 0.000000000000000000, 1.000000000000000000 ) ) ;
#203 = CIRCLE ( 'NONE', #3, 0.2500000000000000000 ) ;
#204 = VECTOR ( 'NONE', #161, 39.37007874015748143 ) ;
#205 = ORIENTED_EDGE ( 'NONE', *, *, #37, .T. ) ;
#206 = ORIENTED_EDGE ( 'NONE', *, *, #216, .T. ) ;
#207 = EDGE_LOOP ( 'NONE', ( #344, #84 ) ) ;
#208 = CARTESIAN_POINT ( 'NONE',  ( -0.4664999999999999702, 3.061616997892902417E-17, -0.2500000000020021762 ) ) ;
#209 = ORIENTED_EDGE ( 'NONE', *, *, #275, .T. ) ;
#210 = AXIS2_PLACEMENT_3D ( 'NONE', #96, #300, #189 ) ;
#211 =( NAMED_UNIT ( * ) PLANE_ANGLE_UNIT ( ) SI_UNIT ( $, .RADIAN. ) );
#212 = EDGE_LOOP ( 'NONE', ( #250, #109, #206, #58 ) ) ;
#213 = LINE ( 'NONE', #266, #204 ) ;
#214 = APPLICATION_CONTEXT ( 'automotive_design' ) ;
#215 = CARTESIAN_POINT ( 'NONE',  ( 0.000000000000000000, 0.000000000000000000, 0.000000000000000000 ) ) ;
#216 = EDGE_CURVE ( 'NONE', #80, #336, #116, .T. ) ;
#217 = DIRECTION ( 'NONE',  ( 0.000000000000000000, 0.000000000000000000, -1.000000000000000000 ) ) ;
#218 = CIRCLE ( 'NONE', #349, 0.1250000000000000000 ) ;
#219 = EDGE_CURVE ( 'NONE', #15, #284, #225, .T. ) ;
#220 = AXIS2_PLACEMENT_3D ( 'NONE', #227, #36, #202 ) ;
#221 = ORIENTED_EDGE ( 'NONE', *, *, #306, .F. ) ;
#222 = ADVANCED_BREP_SHAPE_REPRESENTATION ( '03-3399', ( #352, #20 ), #51 ) ;
#223 = FACE_OUTER_BOUND ( 'NONE', #111, .T. ) ;
#224 = CARTESIAN_POINT ( 'NONE',  ( -1.969999999999999973, 0.000000000000000000, 0.000000000000000000 ) ) ;
#225 = CIRCLE ( 'NONE', #242, 0.2199999999995600197 ) ;
#226 = CARTESIAN_POINT ( 'NONE',  ( 0.000000000000000000, 0.000000000000000000, -0.2500000000000000000 ) ) ;
#227 = CARTESIAN_POINT ( 'NONE',  ( -0.2500000000000000000, 0.000000000000000000, 0.000000000000000000 ) ) ;
#228 = DIRECTION ( 'NONE',  ( -1.000000000000000000, 0.000000000000000000, 0.000000000000000000 ) ) ;
#229 = ORIENTED_EDGE ( 'NONE', *, *, #275, .F. ) ;
#230 = DIRECTION ( 'NONE',  ( 1.000000000000000000, -0.000000000000000000, 5.463695987330561698E-16 ) ) ;
#231 = EDGE_LOOP ( 'NONE', ( #259, #205, #320, #347 ) ) ;
#232 = ADVANCED_FACE ( 'NONE', ( #281 ), #117, .T. ) ;
#233 = CARTESIAN_POINT ( 'NONE',  ( -1.969999999999999973, 0.000000000000000000, -0.2499999999988150035 ) ) ;
#234 = DIRECTION ( 'NONE',  ( 0.000000000000000000, 0.000000000000000000, 1.000000000000000000 ) ) ;
#235 = ORIENTED_EDGE ( 'NONE', *, *, #216, .F. ) ;
#236 = VECTOR ( 'NONE', #144, 39.37007874015748143 ) ;
#237 = CARTESIAN_POINT ( 'NONE',  ( -0.4664999999999999702, 0.000000000000000000, 0.2500000000020022872 ) ) ;
#238 = FACE_OUTER_BOUND ( 'NONE', #212, .T. ) ;
#239 = CARTESIAN_POINT ( 'NONE',  ( 0.1250000000000000000, 3.061616997868383018E-17, 0.2500000000000000000 ) ) ;
#240 = CARTESIAN_POINT ( 'NONE',  ( 0.000000000000000000, 0.000000000000000000, 0.000000000000000000 ) ) ;
#241 = CYLINDRICAL_SURFACE ( 'NONE', #115, 0.2500000000000000000 ) ;
#242 = AXIS2_PLACEMENT_3D ( 'NONE', #92, #230, #253 ) ;
#243 = PRODUCT_DEFINITION ( 'UNKNOWN', '', #83, #32 ) ;
#244 = APPLICATION_PROTOCOL_DEFINITION ( 'draft international standard', 'automotive_design', 1998, #358 ) ;
#245 = DIRECTION ( 'NONE',  ( -1.000000000000000000, -0.000000000000000000, -0.000000000000000000 ) ) ;
#246 = CYLINDRICAL_SURFACE ( 'NONE', #122, 0.1250000000000000000 ) ;
#247 = CARTESIAN_POINT ( 'NONE',  ( -0.2500000000000000000, 0.000000000000000000, 0.2500000000000000000 ) ) ;
#248 = AXIS2_PLACEMENT_3D ( 'NONE', #158, #182, #262 ) ;
#249 = LINE ( 'NONE', #62, #236 ) ;
#250 = ORIENTED_EDGE ( 'NONE', *, *, #29, .F. ) ;
#251 = CARTESIAN_POINT ( 'NONE',  ( -0.4665000000002470504, 0.000000000000000000, 0.000000000000000000 ) ) ;
#252 = ORIENTED_EDGE ( 'NONE', *, *, #52, .F. ) ;
#253 = DIRECTION ( 'NONE',  ( 0.000000000000000000, 0.000000000000000000, -1.000000000000000000 ) ) ;
#254 = ORIENTED_EDGE ( 'NONE', *, *, #219, .T. ) ;
#255 = EDGE_CURVE ( 'NONE', #151, #95, #311, .T. ) ;
#256 = LINE ( 'NONE', #314, #180 ) ;
#257 = ORIENTED_EDGE ( 'NONE', *, *, #270, .F. ) ;
#258 = SURFACE_STYLE_USAGE ( .BOTH. , #133 ) ;
#259 = ORIENTED_EDGE ( 'NONE', *, *, #331, .F. ) ;
#260 = CARTESIAN_POINT ( 'NONE',  ( 0.1250000000000000000, 0.000000000000000000, -0.2500000000000000000 ) ) ;
#261 = LINE ( 'NONE', #17, #27 ) ;
#262 = DIRECTION ( 'NONE',  ( 0.000000000000000000, 0.000000000000000000, -1.000000000000000000 ) ) ;
#263 = EDGE_CURVE ( 'NONE', #284, #15, #332, .T. ) ;
#264 = AXIS2_PLACEMENT_3D ( 'NONE', #307, #172, #308 ) ;
#265 = CARTESIAN_POINT ( 'NONE',  ( -0.2499936490498380071, 1.530808498934191817E-17, -0.1250000000000000278 ) ) ;
#266 = CARTESIAN_POINT ( 'NONE',  ( -1.969999999998908180, 0.000000000000000000, -0.2499999999999069078 ) ) ;
#267 = DIMENSIONAL_EXPONENTS ( 1.000000000000000000, 0.000000000000000000, 0.000000000000000000, 0.000000000000000000, 0.000000000000000000, 0.000000000000000000, 0.000000000000000000 ) ;
#268 = ORIENTED_EDGE ( 'NONE', *, *, #190, .F. ) ;
#269 = DIRECTION ( 'NONE',  ( 2.731847993640825668E-16, 0.000000000000000000, 1.000000000000000000 ) ) ;
#270 = EDGE_CURVE ( 'NONE', #95, #42, #339, .T. ) ;
#271 =( LENGTH_UNIT ( ) NAMED_UNIT ( * ) SI_UNIT ( $, .METRE. ) );
#272 = AXIS2_PLACEMENT_3D ( 'NONE', #145, #228, #30 ) ;
#273 = APPLICATION_PROTOCOL_DEFINITION ( 'draft international standard', 'automotive_design', 1998, #214 ) ;
#274 = CARTESIAN_POINT ( 'NONE',  ( 0.000000000000000000, 0.000000000000000000, -0.2500000000000000000 ) ) ;
#275 = EDGE_CURVE ( 'NONE', #151, #286, #294, .T. ) ;
#276 = AXIS2_PLACEMENT_3D ( 'NONE', #70, #131, #317 ) ;
#277 = DIRECTION ( 'NONE',  ( -1.000000000000000000, 0.000000000000000000, 0.000000000000000000 ) ) ;
#278 = CARTESIAN_POINT ( 'NONE',  ( 0.000000000000000000, 0.000000000000000000, 0.000000000000000000 ) ) ;
#279 = EDGE_CURVE ( 'NONE', #95, #93, #256, .T. ) ;
#280 = DIRECTION ( 'NONE',  ( 1.000000000000000000, 0.000000000000000000, 0.000000000000000000 ) ) ;
#281 = FACE_OUTER_BOUND ( 'NONE', #313, .T. ) ;
#282 = VERTEX_POINT ( 'NONE', #233 ) ;
#283 = CARTESIAN_POINT ( 'NONE',  ( -1.999999999999255262, 0.000000000000000000, -1.639108796218122113E-17 ) ) ;
#284 = VERTEX_POINT ( 'NONE', #18 ) ;
#285 = PLANE ( 'NONE',  #248 ) ;
#286 = VERTEX_POINT ( 'NONE', #287 ) ;
#287 = CARTESIAN_POINT ( 'NONE',  ( 0.000000000000000000, 1.530808498934191509E-17, -0.1250000000000000000 ) ) ;
#288 = CIRCLE ( 'NONE', #191, 0.2500000000000000000 ) ;
#289 = DIRECTION ( 'NONE',  ( 1.092739197466112142E-15, 0.000000000000000000, -1.000000000000000000 ) ) ;
#290 = VERTEX_POINT ( 'NONE', #73 ) ;
#291 = DIRECTION ( 'NONE',  ( 0.000000000000000000, 0.000000000000000000, 1.000000000000000000 ) ) ;
#292 = ORIENTED_EDGE ( 'NONE', *, *, #306, .T. ) ;
#293 = PRESENTATION_STYLE_ASSIGNMENT (( #258 ) ) ;
#294 = CIRCLE ( 'NONE', #78, 0.1250000000000000000 ) ;
#295 = PRESENTATION_LAYER_ASSIGNMENT (  '', '', ( #175 ) ) ;
#296 = DIRECTION ( 'NONE',  ( -1.000000000000000000, -0.000000000000000000, -0.000000000000000000 ) ) ;
#297 = ORIENTED_EDGE ( 'NONE', *, *, #102, .F. ) ;
#298 = EDGE_CURVE ( 'NONE', #284, #282, #213, .T. ) ;
#299 = AXIS2_PLACEMENT_3D ( 'NONE', #25, #106, #53 ) ;
#300 = DIRECTION ( 'NONE',  ( 1.000000000000000000, 0.000000000000000000, 0.000000000000000000 ) ) ;
#301 = ADVANCED_FACE ( 'NONE', ( #98 ), #124, .T. ) ;
#302 = ORIENTED_EDGE ( 'NONE', *, *, #270, .T. ) ;
#303 = DIRECTION ( 'NONE',  ( -1.000000000000000000, 0.000000000000000000, 1.365923996820413080E-16 ) ) ;
#304 = CONICAL_SURFACE ( 'NONE', #57, 0.2500000000021448399, 0.5235987755971300839 ) ;
#305 = DIRECTION ( 'NONE',  ( -1.000000000000000000, 0.000000000000000000, 0.000000000000000000 ) ) ;
#306 = EDGE_CURVE ( 'NONE', #162, #282, #203, .T. ) ;
#307 = CARTESIAN_POINT ( 'NONE',  ( -0.4664999999999999702, 0.000000000000000000, 0.000000000000000000 ) ) ;
#308 = DIRECTION ( 'NONE',  ( 0.000000000000000000, 0.000000000000000000, 1.000000000000000000 ) ) ;
#309 = ORIENTED_EDGE ( 'NONE', *, *, #89, .T. ) ;
#310 = AXIS2_PLACEMENT_3D ( 'NONE', #120, #303, #59 ) ;
#311 = LINE ( 'NONE', #67, #318 ) ;
#312 = ORIENTED_EDGE ( 'NONE', *, *, #13, .T. ) ;
#313 = EDGE_LOOP ( 'NONE', ( #181, #160, #91, #118 ) ) ;
#314 = CARTESIAN_POINT ( 'NONE',  ( -0.4665000000002469394, 0.000000000000000000, 0.2500000000021448399 ) ) ;
#315 = ORIENTED_EDGE ( 'NONE', *, *, #166, .T. ) ;
#316 = CIRCLE ( 'NONE', #164, 0.2500000000000000000 ) ;
#317 = DIRECTION ( 'NONE',  ( 0.000000000000000000, 0.000000000000000000, 1.000000000000000000 ) ) ;
#318 = VECTOR ( 'NONE', #177, 39.37007874015748143 ) ;
#319 = DIMENSIONAL_EXPONENTS ( 1.000000000000000000, 0.000000000000000000, 0.000000000000000000, 0.000000000000000000, 0.000000000000000000, 0.000000000000000000, 0.000000000000000000 ) ;
#320 = ORIENTED_EDGE ( 'NONE', *, *, #255, .T. ) ;
#321 = LINE ( 'NONE', #134, #110 ) ;
#322 = ADVANCED_FACE ( 'NONE', ( #178, #155 ), #285, .F. ) ;
#323 = DIRECTION ( 'NONE',  ( 0.000000000000000000, 0.000000000000000000, 1.000000000000000000 ) ) ;
#324 = SHAPE_DEFINITION_REPRESENTATION ( #126, #222 ) ;
#325 = CARTESIAN_POINT ( 'NONE',  ( 0.000000000000000000, 0.000000000000000000, 0.000000000000000000 ) ) ;
#326 = AXIS2_PLACEMENT_3D ( 'NONE', #197, #200, #170 ) ;
#327 =( CONVERSION_BASED_UNIT ( 'INCH', #105 ) LENGTH_UNIT ( ) NAMED_UNIT ( #267 ) );
#328 = ORIENTED_EDGE ( 'NONE', *, *, #89, .F. ) ;
#329 = ORIENTED_EDGE ( 'NONE', *, *, #346, .F. ) ;
#330 = DIRECTION ( 'NONE',  ( -1.000000000000000000, 0.000000000000000000, 1.365923996820413080E-16 ) ) ;
#331 = EDGE_CURVE ( 'NONE', #286, #42, #74, .T. ) ;
#332 = CIRCLE ( 'NONE', #99, 0.2199999999995600197 ) ;
#333 = MECHANICAL_DESIGN_GEOMETRIC_PRESENTATION_REPRESENTATION (  '', ( #175 ), #35 ) ;
#334 = FACE_OUTER_BOUND ( 'NONE', #231, .T. ) ;
#335 = LINE ( 'NONE', #247, #196 ) ;
#336 = VERTEX_POINT ( 'NONE', #260 ) ;
#337 = CARTESIAN_POINT ( 'NONE',  ( 0.1250000000000000000, 0.000000000000000000, 0.000000000000000000 ) ) ;
#338 = VERTEX_POINT ( 'NONE', #208 ) ;
#339 = CIRCLE ( 'NONE', #310, 0.1250000000000000000 ) ;
#340 = ADVANCED_FACE ( 'NONE', ( #343 ), #187, .T. ) ;
#341 = DIRECTION ( 'NONE',  ( 1.000000000000000000, -0.000000000000000000, -0.000000000000000000 ) ) ;
#342 = EDGE_LOOP ( 'NONE', ( #302, #309, #268, #5 ) ) ;
#343 = FACE_OUTER_BOUND ( 'NONE', #132, .T. ) ;
#344 = ORIENTED_EDGE ( 'NONE', *, *, #263, .F. ) ;
#345 = DIRECTION ( 'NONE',  ( 1.000000000000000000, -0.000000000000000000, 5.463695987330561698E-16 ) ) ;
#346 = EDGE_CURVE ( 'NONE', #338, #93, #28, .T. ) ;
#347 = ORIENTED_EDGE ( 'NONE', *, *, #107, .F. ) ;
#348 = SURFACE_STYLE_FILL_AREA ( #125 ) ;
#349 = AXIS2_PLACEMENT_3D ( 'NONE', #143, #61, #148 ) ;
#350 = EDGE_LOOP ( 'NONE', ( #156, #193 ) ) ;
#351 = DIRECTION ( 'NONE',  ( -1.000000000000000000, 0.000000000000000000, 0.000000000000000000 ) ) ;
#352 = MANIFOLD_SOLID_BREP ( 'Body1', #121 ) ;
#353 = DIRECTION ( 'NONE',  ( 0.000000000000000000, 0.000000000000000000, -1.000000000000000000 ) ) ;
#354 =( CONVERSION_BASED_UNIT ( 'INCH', #100 ) LENGTH_UNIT ( ) NAMED_UNIT ( #319 ) );
#355 = DIRECTION ( 'NONE',  ( 1.000000000000000000, 0.000000000000000000, 0.000000000000000000 ) ) ;
#356 = CIRCLE ( 'NONE', #137, 0.1250000000000000000 ) ;
#357 = ADVANCED_FACE ( 'NONE', ( #238 ), #103, .T. ) ;
#358 = APPLICATION_CONTEXT ( 'automotive_design' ) ;
#359 = CARTESIAN_POINT ( 'NONE',  ( -0.2500000000000000000, 0.000000000000000000, 0.000000000000000000 ) ) ;
#360 = AXIS2_PLACEMENT_3D ( 'NONE', #47, #245, #21 ) ;
#361 = ORIENTED_EDGE ( 'NONE', *, *, #331, .T. ) ;
ENDSEC;
END-ISO-10303-21;
