ISO-10303-21;
HEADER;
FILE_DESCRIPTION (( 'STEP AP214' ),
    '1' );
FILE_NAME ('03-3400.STEP',
    '2025-07-09T15:24:17',
    ( '' ),
    ( '' ),
    'SwSTEP 2.0',
    'SolidWorks 2023',
    '' );
FILE_SCHEMA (( 'AUTOMOTIVE_DESIGN' ));
ENDSEC;

DATA;
#1 = CIRCLE ( 'NONE', #214, 0.3125000000000000000 ) ;
#2 = MANIFOLD_SOLID_BREP ( 'Body1', #370 ) ;
#3 = AXIS2_PLACEMENT_3D ( 'NONE', #15, #46, #160 ) ;
#4 = DIRECTION ( 'NONE',  ( -1.000000000000000000, 0.000000000000000000, 0.000000000000000000 ) ) ;
#5 = EDGE_LOOP ( 'NONE', ( #390, #272, #143, #249 ) ) ;
#6 = FACE_OUTER_BOUND ( 'NONE', #211, .T. ) ;
#7 = EDGE_CURVE ( 'NONE', #121, #223, #59, .T. ) ;
#8 = VERTEX_POINT ( 'NONE', #341 ) ;
#9 = AXIS2_PLACEMENT_3D ( 'NONE', #168, #302, #34 ) ;
#10 = DIRECTION ( 'NONE',  ( 0.000000000000000000, 0.000000000000000000, -1.000000000000000000 ) ) ;
#11 = FILL_AREA_STYLE_COLOUR ( '', #128 ) ;
#12 = DIRECTION ( 'NONE',  ( 1.000000000000000000, 0.000000000000000000, 0.000000000000000000 ) ) ;
#13 = ORIENTED_EDGE ( 'NONE', *, *, #253, .T. ) ;
#14 = LINE ( 'NONE', #260, #22 ) ;
#15 = CARTESIAN_POINT ( 'NONE',  ( -0.2500000000000000000, 0.000000000000000000, 0.000000000000000000 ) ) ;
#16 = ADVANCED_FACE ( 'NONE', ( #41 ), #217, .T. ) ;
#17 = EDGE_LOOP ( 'NONE', ( #377, #48 ) ) ;
#18 = CARTESIAN_POINT ( 'NONE',  ( 0.06250000000000000000, 3.827021247335478926E-17, 0.3125000000000000000 ) ) ;
#19 = DIRECTION ( 'NONE',  ( 0.7071067811865479058, 0.000000000000000000, -0.7071067811865472397 ) ) ;
#20 = CIRCLE ( 'NONE', #251, 0.1405000000000000138 ) ;
#21 = FACE_OUTER_BOUND ( 'NONE', #5, .T. ) ;
#22 = VECTOR ( 'NONE', #381, 39.37007874015748143 ) ;
#23 = CARTESIAN_POINT ( 'NONE',  ( -0.4390000000000000013, 0.000000000000000000, 0.000000000000000000 ) ) ;
#24 = PLANE ( 'NONE',  #206 ) ;
#25 = VERTEX_POINT ( 'NONE', #150 ) ;
#26 = CARTESIAN_POINT ( 'NONE',  ( -1.969999999998908402, 0.000000000000000000, 0.000000000000000000 ) ) ;
#27 = CIRCLE ( 'NONE', #145, 0.1408807991235628831 ) ;
#28 = VERTEX_POINT ( 'NONE', #313 ) ;
#29 = CIRCLE ( 'NONE', #75, 0.2199999999995600197 ) ;
#30 = CARTESIAN_POINT ( 'NONE',  ( 0.000000000000000000, 0.000000000000000000, 0.000000000000000000 ) ) ;
#31 = ORIENTED_EDGE ( 'NONE', *, *, #274, .F. ) ;
#32 = DIRECTION ( 'NONE',  ( 1.000000000000000000, -0.000000000000000000, 5.463695987330561698E-16 ) ) ;
#33 = ORIENTED_EDGE ( 'NONE', *, *, #243, .T. ) ;
#34 = DIRECTION ( 'NONE',  ( 0.000000000000000000, 0.000000000000000000, 1.000000000000000000 ) ) ;
#35 = ORIENTED_EDGE ( 'NONE', *, *, #87, .F. ) ;
#36 = EDGE_CURVE ( 'NONE', #89, #309, #293, .T. ) ;
#37 = EDGE_LOOP ( 'NONE', ( #55, #124, #110, #257 ) ) ;
#38 = ADVANCED_FACE ( 'NONE', ( #6 ), #184, .T. ) ;
#39 = DIRECTION ( 'NONE',  ( -1.000000000000000000, 0.000000000000000000, 0.000000000000000000 ) ) ;
#40 = CARTESIAN_POINT ( 'NONE',  ( 0.06250000000000000000, 0.000000000000000000, 0.000000000000000000 ) ) ;
#41 = FACE_OUTER_BOUND ( 'NONE', #242, .T. ) ;
#42 = PRODUCT_DEFINITION ( 'UNKNOWN', '', #197, #295 ) ;
#43 = FACE_BOUND ( 'NONE', #17, .T. ) ;
#44 = VECTOR ( 'NONE', #158, 39.37007874015748143 ) ;
#45 = ADVANCED_FACE ( 'NONE', ( #308 ), #367, .T. ) ;
#46 = DIRECTION ( 'NONE',  ( -1.000000000000000000, 0.000000000000000000, 0.000000000000000000 ) ) ;
#47 = DIRECTION ( 'NONE',  ( -0.8660254037858737819, 6.123233995706322168E-17, -0.4999999999975140996 ) ) ;
#48 = ORIENTED_EDGE ( 'NONE', *, *, #126, .F. ) ;
#49 = LINE ( 'NONE', #316, #161 ) ;
#50 =( GEOMETRIC_REPRESENTATION_CONTEXT ( 3 ) GLOBAL_UNCERTAINTY_ASSIGNED_CONTEXT ( ( #165 ) ) GLOBAL_UNIT_ASSIGNED_CONTEXT ( ( #317, #347, #152 ) ) REPRESENTATION_CONTEXT ( 'NONE', 'WORKASPACE' ) );
#51 = VECTOR ( 'NONE', #387, 39.37007874015748143 ) ;
#52 = CARTESIAN_POINT ( 'NONE',  ( -1.999999999999255262, 0.000000000000000000, -1.639108796218122113E-17 ) ) ;
#53 = CARTESIAN_POINT ( 'NONE',  ( -0.2500000000000000000, 0.000000000000000000, 0.000000000000000000 ) ) ;
#54 = DIRECTION ( 'NONE',  ( 0.000000000000000000, 0.000000000000000000, 1.000000000000000000 ) ) ;
#55 = ORIENTED_EDGE ( 'NONE', *, *, #315, .F. ) ;
#56 = DIRECTION ( 'NONE',  ( -1.000000000000000000, 0.000000000000000000, 0.000000000000000000 ) ) ;
#57 = EDGE_CURVE ( 'NONE', #177, #345, #49, .T. ) ;
#58 = ORIENTED_EDGE ( 'NONE', *, *, #199, .T. ) ;
#59 = CIRCLE ( 'NONE', #288, 0.2500000000000000000 ) ;
#60 = CARTESIAN_POINT ( 'NONE',  ( -0.4390000000000000013, 0.000000000000000000, 0.2499999999997325473 ) ) ;
#61 = ORIENTED_EDGE ( 'NONE', *, *, #201, .T. ) ;
#62 = DIRECTION ( 'NONE',  ( 0.000000000000000000, 0.000000000000000000, 1.000000000000000000 ) ) ;
#63 = ORIENTED_EDGE ( 'NONE', *, *, #36, .F. ) ;
#64 = ADVANCED_FACE ( 'NONE', ( #21 ), #99, .T. ) ;
#65 = CONICAL_SURFACE ( 'NONE', #363, 0.2499999999999069078, 0.7853981633974482790 ) ;
#66 = ORIENTED_EDGE ( 'NONE', *, *, #274, .T. ) ;
#67 = PRESENTATION_STYLE_ASSIGNMENT (( #248 ) ) ;
#68 = DIRECTION ( 'NONE',  ( 0.000000000000000000, 0.000000000000000000, 1.000000000000000000 ) ) ;
#69 = ORIENTED_EDGE ( 'NONE', *, *, #178, .F. ) ;
#70 = AXIS2_PLACEMENT_3D ( 'NONE', #233, #389, #80 ) ;
#71 = DIRECTION ( 'NONE',  ( 0.000000000000000000, 0.000000000000000000, 1.000000000000000000 ) ) ;
#72 = CARTESIAN_POINT ( 'NONE',  ( 0.000000000000000000, 0.000000000000000000, 0.000000000000000000 ) ) ;
#73 = ADVANCED_FACE ( 'NONE', ( #43, #291 ), #290, .F. ) ;
#74 = CARTESIAN_POINT ( 'NONE',  ( -1.969999999998908180, 0.000000000000000000, -0.2499999999999069078 ) ) ;
#75 = AXIS2_PLACEMENT_3D ( 'NONE', #52, #348, #259 ) ;
#76 = CARTESIAN_POINT ( 'NONE',  ( -1.999999999999255262, 0.000000000000000000, -1.639108796218122113E-17 ) ) ;
#77 = DIRECTION ( 'NONE',  ( -1.000000000000000000, 0.000000000000000000, 0.000000000000000000 ) ) ;
#78 = DIRECTION ( 'NONE',  ( -0.8660254037858737819, 0.000000000000000000, 0.4999999999975140996 ) ) ;
#79 = CARTESIAN_POINT ( 'NONE',  ( -0.4390000000003020375, 0.000000000000000000, 0.000000000000000000 ) ) ;
#80 = DIRECTION ( 'NONE',  ( 0.000000000000000000, 0.000000000000000000, -1.000000000000000000 ) ) ;
#81 = CARTESIAN_POINT ( 'NONE',  ( -0.2499999999999069078, 2.393454597472516536E-17, -0.1408807991235628831 ) ) ;
#82 = DIRECTION ( 'NONE',  ( -1.000000000000000000, 0.000000000000000000, 0.000000000000000000 ) ) ;
#83 = ORIENTED_EDGE ( 'NONE', *, *, #243, .F. ) ;
#84 = AXIS2_PLACEMENT_3D ( 'NONE', #148, #92, #68 ) ;
#85 = CARTESIAN_POINT ( 'NONE',  ( 0.06250000000000000000, 0.000000000000000000, -0.3125000000000000000 ) ) ;
#86 = ORIENTED_EDGE ( 'NONE', *, *, #7, .T. ) ;
#87 = EDGE_CURVE ( 'NONE', #276, #121, #130, .T. ) ;
#88 = ORIENTED_EDGE ( 'NONE', *, *, #340, .T. ) ;
#89 = VERTEX_POINT ( 'NONE', #261 ) ;
#90 = CIRCLE ( 'NONE', #292, 0.2500000000000000000 ) ;
#91 = EDGE_LOOP ( 'NONE', ( #31, #61, #254, #312 ) ) ;
#92 = DIRECTION ( 'NONE',  ( -1.000000000000000000, 0.000000000000000000, 0.000000000000000000 ) ) ;
#93 = ORIENTED_EDGE ( 'NONE', *, *, #268, .T. ) ;
#94 = ORIENTED_EDGE ( 'NONE', *, *, #57, .F. ) ;
#95 = ADVANCED_FACE ( 'NONE', ( #287 ), #97, .T. ) ;
#96 = DIRECTION ( 'NONE',  ( 1.000000000000000000, 0.000000000000000000, 0.000000000000000000 ) ) ;
#97 = CYLINDRICAL_SURFACE ( 'NONE', #299, 0.1405000000000000138 ) ;
#98 = CARTESIAN_POINT ( 'NONE',  ( -0.4390000000003020375, 0.000000000000000000, 0.2499999999999069078 ) ) ;
#99 = CONICAL_SURFACE ( 'NONE', #265, 0.2499999999999069078, 0.7853981633974482790 ) ;
#100 = PRODUCT_DEFINITION_SHAPE ( 'NONE', 'NONE',  #42 ) ;
#101 = CARTESIAN_POINT ( 'NONE',  ( -0.4390000000003020375, 3.061616997867242867E-17, -0.2499999999999069078 ) ) ;
#102 = CARTESIAN_POINT ( 'NONE',  ( -0.2500000000000000000, 0.000000000000000000, 0.000000000000000000 ) ) ;
#103 = ORIENTED_EDGE ( 'NONE', *, *, #87, .T. ) ;
#104 = CARTESIAN_POINT ( 'NONE',  ( -1.999999999999255262, 0.000000000000000000, -0.2199999999995600197 ) ) ;
#105 = AXIS2_PLACEMENT_3D ( 'NONE', #374, #39, #147 ) ;
#106 = LINE ( 'NONE', #269, #336 ) ;
#107 = EDGE_LOOP ( 'NONE', ( #83, #93, #103, #86 ) ) ;
#108 = EDGE_CURVE ( 'NONE', #247, #205, #14, .T. ) ;
#109 = FACE_OUTER_BOUND ( 'NONE', #218, .T. ) ;
#110 = ORIENTED_EDGE ( 'NONE', *, *, #108, .T. ) ;
#111 = DIRECTION ( 'NONE',  ( -1.000000000000000000, 0.000000000000000000, 0.000000000000000000 ) ) ;
#112 = ORIENTED_EDGE ( 'NONE', *, *, #126, .T. ) ;
#113 = CARTESIAN_POINT ( 'NONE',  ( -0.2500000000000000000, 0.000000000000000000, 0.1405000000000000138 ) ) ;
#114 = CIRCLE ( 'NONE', #344, 0.1405000000000000138 ) ;
#115 = ORIENTED_EDGE ( 'NONE', *, *, #36, .T. ) ;
#116 = STYLED_ITEM ( 'NONE', ( #67 ), #2 ) ;
#117 = CARTESIAN_POINT ( 'NONE',  ( -1.969999999999999973, 0.000000000000000000, -0.2499999999988150035 ) ) ;
#118 = EDGE_CURVE ( 'NONE', #276, #208, #311, .T. ) ;
#119 = SURFACE_SIDE_STYLE ('',( #372 ) ) ;
#120 = ORIENTED_EDGE ( 'NONE', *, *, #253, .F. ) ;
#121 = VERTEX_POINT ( 'NONE', #383 ) ;
#122 = EDGE_CURVE ( 'NONE', #89, #276, #354, .T. ) ;
#123 = DIRECTION ( 'NONE',  ( 1.000000000000000000, 0.000000000000000000, 0.000000000000000000 ) ) ;
#124 = ORIENTED_EDGE ( 'NONE', *, *, #193, .T. ) ;
#125 =( LENGTH_UNIT ( ) NAMED_UNIT ( * ) SI_UNIT ( $, .METRE. ) );
#126 = EDGE_CURVE ( 'NONE', #8, #345, #356, .T. ) ;
#127 =( NAMED_UNIT ( * ) SI_UNIT ( $, .STERADIAN. ) SOLID_ANGLE_UNIT ( ) );
#128 = COLOUR_RGB ( '',0.6274509803921568540, 0.6274509803921568540, 0.6274509803921568540 ) ;
#129 = DIRECTION ( 'NONE',  ( 0.000000000000000000, 0.000000000000000000, 1.000000000000000000 ) ) ;
#130 = LINE ( 'NONE', #256, #44 ) ;
#131 = VERTEX_POINT ( 'NONE', #229 ) ;
#132 = DIRECTION ( 'NONE',  ( 1.000000000000000000, -0.000000000000000000, -0.000000000000000000 ) ) ;
#133 = DIRECTION ( 'NONE',  ( -1.000000000000000000, 0.000000000000000000, 0.000000000000000000 ) ) ;
#134 = ORIENTED_EDGE ( 'NONE', *, *, #193, .F. ) ;
#135 = CARTESIAN_POINT ( 'NONE',  ( -1.969999999998908402, 0.000000000000000000, 0.000000000000000000 ) ) ;
#136 = FACE_OUTER_BOUND ( 'NONE', #37, .T. ) ;
#137 = ADVANCED_FACE ( 'NONE', ( #252, #352 ), #226, .F. ) ;
#138 = VECTOR ( 'NONE', #78, 39.37007874015748854 ) ;
#139 = FACE_OUTER_BOUND ( 'NONE', #298, .T. ) ;
#140 = DIRECTION ( 'NONE',  ( 0.000000000000000000, 0.000000000000000000, -1.000000000000000000 ) ) ;
#141 = ORIENTED_EDGE ( 'NONE', *, *, #297, .F. ) ;
#142 = CARTESIAN_POINT ( 'NONE',  ( -2.000000000000000000, 0.000000000000000000, 0.000000000000000000 ) ) ;
#143 = ORIENTED_EDGE ( 'NONE', *, *, #340, .F. ) ;
#144 = DIRECTION ( 'NONE',  ( 1.092739197466112142E-15, 0.000000000000000000, -1.000000000000000000 ) ) ;
#145 = AXIS2_PLACEMENT_3D ( 'NONE', #375, #192, #156 ) ;
#146 = ORIENTED_EDGE ( 'NONE', *, *, #306, .F. ) ;
#147 = DIRECTION ( 'NONE',  ( 0.000000000000000000, 0.000000000000000000, 1.000000000000000000 ) ) ;
#148 = CARTESIAN_POINT ( 'NONE',  ( -0.2499999999999069078, 0.000000000000000000, 0.000000000000000000 ) ) ;
#149 =( GEOMETRIC_REPRESENTATION_CONTEXT ( 3 ) GLOBAL_UNCERTAINTY_ASSIGNED_CONTEXT ( ( #232 ) ) GLOBAL_UNIT_ASSIGNED_CONTEXT ( ( #278, #371, #127 ) ) REPRESENTATION_CONTEXT ( 'NONE', 'WORKASPACE' ) );
#150 = CARTESIAN_POINT ( 'NONE',  ( 0.000000000000000000, 1.720628752802031144E-17, -0.1405000000000000138 ) ) ;
#151 = CARTESIAN_POINT ( 'NONE',  ( -0.4390000000003020375, 0.000000000000000000, 0.000000000000000000 ) ) ;
#152 =( NAMED_UNIT ( * ) SI_UNIT ( $, .STERADIAN. ) SOLID_ANGLE_UNIT ( ) );
#153 = EDGE_CURVE ( 'NONE', #172, #131, #29, .T. ) ;
#154 = DIRECTION ( 'NONE',  ( 0.000000000000000000, 0.000000000000000000, 1.000000000000000000 ) ) ;
#155 = AXIS2_PLACEMENT_3D ( 'NONE', #30, #111, #240 ) ;
#156 = DIRECTION ( 'NONE',  ( 0.000000000000000000, 0.000000000000000000, 1.000000000000000000 ) ) ;
#157 = LINE ( 'NONE', #101, #198 ) ;
#158 = DIRECTION ( 'NONE',  ( -1.000000000000000000, 0.000000000000000000, 0.000000000000000000 ) ) ;
#159 = PRODUCT ( '03-3400', '03-3400', '', ( #284 ) ) ;
#160 = DIRECTION ( 'NONE',  ( 0.000000000000000000, 0.000000000000000000, 1.000000000000000000 ) ) ;
#161 = VECTOR ( 'NONE', #133, 39.37007874015748143 ) ;
#162 = DIRECTION ( 'NONE',  ( 1.000000000000000000, 0.000000000000000000, 0.000000000000000000 ) ) ;
#163 = EDGE_CURVE ( 'NONE', #172, #223, #224, .T. ) ;
#164 = CARTESIAN_POINT ( 'NONE',  ( 0.06250000000000000000, 0.000000000000000000, 0.000000000000000000 ) ) ;
#165 = UNCERTAINTY_MEASURE_WITH_UNIT (LENGTH_MEASURE( 1.000000000000000082E-05 ), #317, 'distance_accuracy_value', 'NONE');
#166 = DIRECTION ( 'NONE',  ( 1.000000000000000000, -0.000000000000000000, -0.000000000000000000 ) ) ;
#167 = VECTOR ( 'NONE', #19, 39.37007874015748143 ) ;
#168 = CARTESIAN_POINT ( 'NONE',  ( 0.000000000000000000, 0.000000000000000000, 0.000000000000000000 ) ) ;
#169 = ORIENTED_EDGE ( 'NONE', *, *, #122, .T. ) ;
#170 = DIRECTION ( 'NONE',  ( -1.000000000000000000, -0.000000000000000000, -0.000000000000000000 ) ) ;
#171 = ORIENTED_EDGE ( 'NONE', *, *, #359, .T. ) ;
#172 = VERTEX_POINT ( 'NONE', #104 ) ;
#173 = DIRECTION ( 'NONE',  ( 0.000000000000000000, 0.000000000000000000, 1.000000000000000000 ) ) ;
#174 = ORIENTED_EDGE ( 'NONE', *, *, #180, .T. ) ;
#175 = AXIS2_PLACEMENT_3D ( 'NONE', #194, #189, #294 ) ;
#176 = CARTESIAN_POINT ( 'NONE',  ( 0.000000000000000000, 0.000000000000000000, 0.000000000000000000 ) ) ;
#177 = VERTEX_POINT ( 'NONE', #350 ) ;
#178 = EDGE_CURVE ( 'NONE', #309, #208, #157, .T. ) ;
#179 = SHAPE_DEFINITION_REPRESENTATION ( #100, #255 ) ;
#180 = EDGE_CURVE ( 'NONE', #131, #172, #349, .T. ) ;
#181 = DIRECTION ( 'NONE',  ( 0.000000000000000000, 0.000000000000000000, 1.000000000000000000 ) ) ;
#182 = CIRCLE ( 'NONE', #175, 0.3125000000000000000 ) ;
#183 = LENGTH_MEASURE_WITH_UNIT ( LENGTH_MEASURE( 0.02539999999999999897 ), #246 );
#184 = CONICAL_SURFACE ( 'NONE', #191, 0.2499999999999069078, 0.5235987755954284451 ) ;
#185 = EDGE_LOOP ( 'NONE', ( #63, #282 ) ) ;
#186 = FACE_OUTER_BOUND ( 'NONE', #388, .T. ) ;
#187 = CARTESIAN_POINT ( 'NONE',  ( 0.000000000000000000, 0.000000000000000000, 0.000000000000000000 ) ) ;
#188 = CYLINDRICAL_SURFACE ( 'NONE', #190, 0.3125000000000000000 ) ;
#189 = DIRECTION ( 'NONE',  ( -1.000000000000000000, -0.000000000000000000, -0.000000000000000000 ) ) ;
#190 = AXIS2_PLACEMENT_3D ( 'NONE', #319, #12, #215 ) ;
#191 = AXIS2_PLACEMENT_3D ( 'NONE', #151, #283, #181 ) ;
#192 = DIRECTION ( 'NONE',  ( -1.000000000000000000, 0.000000000000000000, 0.000000000000000000 ) ) ;
#193 = EDGE_CURVE ( 'NONE', #28, #247, #1, .T. ) ;
#194 = CARTESIAN_POINT ( 'NONE',  ( 0.06250000000000000000, 0.000000000000000000, 0.000000000000000000 ) ) ;
#195 = DIRECTION ( 'NONE',  ( 1.000000000000000000, -0.000000000000000000, 5.463695987330561698E-16 ) ) ;
#196 = DIRECTION ( 'NONE',  ( 0.000000000000000000, 0.000000000000000000, 1.000000000000000000 ) ) ;
#197 = PRODUCT_DEFINITION_FORMATION_WITH_SPECIFIED_SOURCE ( 'ANY', '', #159, .NOT_KNOWN. ) ;
#198 = VECTOR ( 'NONE', #47, 39.37007874015748854 ) ;
#199 = EDGE_CURVE ( 'NONE', #365, #205, #182, .T. ) ;
#200 = DIRECTION ( 'NONE',  ( -1.000000000000000000, 0.000000000000000000, 0.000000000000000000 ) ) ;
#201 = EDGE_CURVE ( 'NONE', #25, #177, #20, .T. ) ;
#202 = LINE ( 'NONE', #235, #221 ) ;
#203 = ORIENTED_EDGE ( 'NONE', *, *, #359, .F. ) ;
#204 = DIRECTION ( 'NONE',  ( 0.000000000000000000, 0.000000000000000000, 1.000000000000000000 ) ) ;
#205 = VERTEX_POINT ( 'NONE', #85 ) ;
#206 = AXIS2_PLACEMENT_3D ( 'NONE', #142, #56, #62 ) ;
#207 = CARTESIAN_POINT ( 'NONE',  ( 0.000000000000000000, 0.000000000000000000, -0.3125000000000000000 ) ) ;
#208 = VERTEX_POINT ( 'NONE', #358 ) ;
#209 = CARTESIAN_POINT ( 'NONE',  ( -0.2500000000000000000, 0.000000000000000000, 0.000000000000000000 ) ) ;
#210 = ORIENTED_EDGE ( 'NONE', *, *, #180, .F. ) ;
#211 = EDGE_LOOP ( 'NONE', ( #115, #333, #335, #301 ) ) ;
#212 = EDGE_LOOP ( 'NONE', ( #141, #222 ) ) ;
#213 = ADVANCED_FACE ( 'NONE', ( #139 ), #24, .T. ) ;
#214 = AXIS2_PLACEMENT_3D ( 'NONE', #321, #162, #351 ) ;
#215 = DIRECTION ( 'NONE',  ( 0.000000000000000000, 0.000000000000000000, -1.000000000000000000 ) ) ;
#216 = MECHANICAL_DESIGN_GEOMETRIC_PRESENTATION_REPRESENTATION (  '', ( #116 ), #149 ) ;
#217 = CYLINDRICAL_SURFACE ( 'NONE', #105, 0.2500000000000000000 ) ;
#218 = EDGE_LOOP ( 'NONE', ( #69, #234, #169, #270 ) ) ;
#219 = ORIENTED_EDGE ( 'NONE', *, *, #201, .F. ) ;
#220 = EDGE_LOOP ( 'NONE', ( #146, #174, #263, #277 ) ) ;
#221 = VECTOR ( 'NONE', #267, 39.37007874015748143 ) ;
#222 = ORIENTED_EDGE ( 'NONE', *, *, #199, .F. ) ;
#223 = VERTEX_POINT ( 'NONE', #117 ) ;
#224 = LINE ( 'NONE', #74, #167 ) ;
#225 = ADVANCED_FACE ( 'NONE', ( #241 ), #384, .T. ) ;
#226 = PLANE ( 'NONE',  #239 ) ;
#227 = AXIS2_PLACEMENT_3D ( 'NONE', #53, #82, #54 ) ;
#228 = DIRECTION ( 'NONE',  ( 1.092739197466112142E-15, 0.000000000000000000, -1.000000000000000000 ) ) ;
#229 = CARTESIAN_POINT ( 'NONE',  ( -1.999999999999255262, 2.877919977993585991E-17, 0.2199999999995600197 ) ) ;
#230 = DIRECTION ( 'NONE',  ( 0.000000000000000000, 0.000000000000000000, -1.000000000000000000 ) ) ;
#231 = CONICAL_SURFACE ( 'NONE', #273, 0.2499999999999069078, 0.5235987755954284451 ) ;
#232 = UNCERTAINTY_MEASURE_WITH_UNIT (LENGTH_MEASURE( 1.000000000000000082E-05 ), #278, 'distance_accuracy_value', 'NONE');
#233 = CARTESIAN_POINT ( 'NONE',  ( 0.000000000000000000, 0.000000000000000000, 0.000000000000000000 ) ) ;
#234 = ORIENTED_EDGE ( 'NONE', *, *, #380, .T. ) ;
#235 = CARTESIAN_POINT ( 'NONE',  ( -0.2500000000000000000, 3.061616997868383018E-17, -0.2500000000000000000 ) ) ;
#236 = DIRECTION ( 'NONE',  ( 0.000000000000000000, 0.000000000000000000, 1.000000000000000000 ) ) ;
#237 = EDGE_LOOP ( 'NONE', ( #203, #134 ) ) ;
#238 = AXIS2_PLACEMENT_3D ( 'NONE', #275, #4, #236 ) ;
#239 = AXIS2_PLACEMENT_3D ( 'NONE', #323, #318, #376 ) ;
#240 = DIRECTION ( 'NONE',  ( 0.000000000000000000, 0.000000000000000000, 1.000000000000000000 ) ) ;
#241 = FACE_OUTER_BOUND ( 'NONE', #107, .T. ) ;
#242 = EDGE_LOOP ( 'NONE', ( #250, #33, #88, #35 ) ) ;
#243 = EDGE_CURVE ( 'NONE', #208, #223, #202, .T. ) ;
#244 = APPLICATION_CONTEXT ( 'automotive_design' ) ;
#245 = AXIS2_PLACEMENT_3D ( 'NONE', #102, #132, #196 ) ;
#246 =( LENGTH_UNIT ( ) NAMED_UNIT ( * ) SI_UNIT ( $, .METRE. ) );
#247 = VERTEX_POINT ( 'NONE', #207 ) ;
#248 = SURFACE_STYLE_USAGE ( .BOTH. , #119 ) ;
#249 = ORIENTED_EDGE ( 'NONE', *, *, #163, .F. ) ;
#250 = ORIENTED_EDGE ( 'NONE', *, *, #118, .T. ) ;
#251 = AXIS2_PLACEMENT_3D ( 'NONE', #187, #77, #303 ) ;
#252 = FACE_BOUND ( 'NONE', #304, .T. ) ;
#253 = EDGE_CURVE ( 'NONE', #177, #25, #305, .T. ) ;
#254 = ORIENTED_EDGE ( 'NONE', *, *, #57, .T. ) ;
#255 = ADVANCED_BREP_SHAPE_REPRESENTATION ( '03-3400', ( #2, #322 ), #50 ) ;
#256 = CARTESIAN_POINT ( 'NONE',  ( -0.2500000000000000000, 0.000000000000000000, 0.2500000000000000000 ) ) ;
#257 = ORIENTED_EDGE ( 'NONE', *, *, #297, .T. ) ;
#258 = ADVANCED_FACE ( 'NONE', ( #271 ), #65, .T. ) ;
#259 = DIRECTION ( 'NONE',  ( 0.000000000000000000, 0.000000000000000000, -1.000000000000000000 ) ) ;
#260 = CARTESIAN_POINT ( 'NONE',  ( 0.000000000000000000, 0.000000000000000000, -0.3125000000000000000 ) ) ;
#261 = CARTESIAN_POINT ( 'NONE',  ( -0.2499999999999069078, 0.000000000000000000, 0.1408807991235628831 ) ) ;
#262 = CYLINDRICAL_SURFACE ( 'NONE', #70, 0.3125000000000000000 ) ;
#263 = ORIENTED_EDGE ( 'NONE', *, *, #163, .T. ) ;
#264 = CIRCLE ( 'NONE', #238, 0.2500000000000000000 ) ;
#265 = AXIS2_PLACEMENT_3D ( 'NONE', #135, #289, #228 ) ;
#266 = APPLICATION_CONTEXT ( 'automotive_design' ) ;
#267 = DIRECTION ( 'NONE',  ( -1.000000000000000000, 0.000000000000000000, 0.000000000000000000 ) ) ;
#268 = EDGE_CURVE ( 'NONE', #208, #276, #264, .T. ) ;
#269 = CARTESIAN_POINT ( 'NONE',  ( -1.969999999998908624, 3.061616997867242867E-17, 0.2499999999999069078 ) ) ;
#270 = ORIENTED_EDGE ( 'NONE', *, *, #268, .F. ) ;
#271 = FACE_OUTER_BOUND ( 'NONE', #220, .T. ) ;
#272 = ORIENTED_EDGE ( 'NONE', *, *, #306, .T. ) ;
#273 = AXIS2_PLACEMENT_3D ( 'NONE', #79, #200, #326 ) ;
#274 = EDGE_CURVE ( 'NONE', #25, #8, #328, .T. ) ;
#275 = CARTESIAN_POINT ( 'NONE',  ( -0.4390000000000000013, 0.000000000000000000, 0.000000000000000000 ) ) ;
#276 = VERTEX_POINT ( 'NONE', #60 ) ;
#277 = ORIENTED_EDGE ( 'NONE', *, *, #7, .F. ) ;
#278 =( CONVERSION_BASED_UNIT ( 'INCH', #183 ) LENGTH_UNIT ( ) NAMED_UNIT ( #325 ) );
#279 = VECTOR ( 'NONE', #296, 39.37007874015748143 ) ;
#280 = AXIS2_PLACEMENT_3D ( 'NONE', #23, #382, #129 ) ;
#281 = DIRECTION ( 'NONE',  ( 1.000000000000000000, -0.000000000000000000, -0.000000000000000000 ) ) ;
#282 = ORIENTED_EDGE ( 'NONE', *, *, #380, .F. ) ;
#283 = DIRECTION ( 'NONE',  ( -1.000000000000000000, 0.000000000000000000, 0.000000000000000000 ) ) ;
#284 = PRODUCT_CONTEXT ( 'NONE', #244, 'mechanical' ) ;
#285 = CIRCLE ( 'NONE', #368, 0.3125000000000000000 ) ;
#286 = ADVANCED_FACE ( 'NONE', ( #109 ), #231, .T. ) ;
#287 = FACE_OUTER_BOUND ( 'NONE', #361, .T. ) ;
#288 = AXIS2_PLACEMENT_3D ( 'NONE', #346, #281, #71 ) ;
#289 = DIRECTION ( 'NONE',  ( 1.000000000000000000, -0.000000000000000000, 5.463695987330561698E-16 ) ) ;
#290 = PLANE ( 'NONE',  #3 ) ;
#291 = FACE_OUTER_BOUND ( 'NONE', #185, .T. ) ;
#292 = AXIS2_PLACEMENT_3D ( 'NONE', #362, #166, #204 ) ;
#293 = CIRCLE ( 'NONE', #84, 0.1408807991235628831 ) ;
#294 = DIRECTION ( 'NONE',  ( 0.000000000000000000, 0.000000000000000000, -1.000000000000000000 ) ) ;
#295 = PRODUCT_DEFINITION_CONTEXT ( 'detailed design', #266, 'design' ) ;
#296 = DIRECTION ( 'NONE',  ( 1.000000000000000000, 0.000000000000000000, 0.000000000000000000 ) ) ;
#297 = EDGE_CURVE ( 'NONE', #205, #365, #285, .T. ) ;
#298 = EDGE_LOOP ( 'NONE', ( #334, #210 ) ) ;
#299 = AXIS2_PLACEMENT_3D ( 'NONE', #379, #320, #154 ) ;
#300 = LINE ( 'NONE', #391, #279 ) ;
#301 = ORIENTED_EDGE ( 'NONE', *, *, #122, .F. ) ;
#302 = DIRECTION ( 'NONE',  ( -1.000000000000000000, 0.000000000000000000, 0.000000000000000000 ) ) ;
#303 = DIRECTION ( 'NONE',  ( 0.000000000000000000, 0.000000000000000000, 1.000000000000000000 ) ) ;
#304 = EDGE_LOOP ( 'NONE', ( #120, #219 ) ) ;
#305 = CIRCLE ( 'NONE', #9, 0.1405000000000000138 ) ;
#306 = EDGE_CURVE ( 'NONE', #131, #121, #106, .T. ) ;
#307 = APPLICATION_PROTOCOL_DEFINITION ( 'draft international standard', 'automotive_design', 1998, #244 ) ;
#308 = FACE_OUTER_BOUND ( 'NONE', #212, .T. ) ;
#309 = VERTEX_POINT ( 'NONE', #81 ) ;
#310 = AXIS2_PLACEMENT_3D ( 'NONE', #76, #195, #230 ) ;
#311 = CIRCLE ( 'NONE', #280, 0.2500000000000000000 ) ;
#312 = ORIENTED_EDGE ( 'NONE', *, *, #357, .T. ) ;
#313 = CARTESIAN_POINT ( 'NONE',  ( 0.000000000000000000, 3.827021247335478926E-17, 0.3125000000000000000 ) ) ;
#314 = DIRECTION ( 'NONE',  ( 1.000000000000000000, 0.000000000000000000, 0.000000000000000000 ) ) ;
#315 = EDGE_CURVE ( 'NONE', #28, #365, #300, .T. ) ;
#316 = CARTESIAN_POINT ( 'NONE',  ( 0.000000000000000000, 0.000000000000000000, 0.1405000000000000138 ) ) ;
#317 =( CONVERSION_BASED_UNIT ( 'INCH', #338 ) LENGTH_UNIT ( ) NAMED_UNIT ( #355 ) );
#318 = DIRECTION ( 'NONE',  ( 1.000000000000000000, 0.000000000000000000, 0.000000000000000000 ) ) ;
#319 = CARTESIAN_POINT ( 'NONE',  ( 0.000000000000000000, 0.000000000000000000, 0.000000000000000000 ) ) ;
#320 = DIRECTION ( 'NONE',  ( -1.000000000000000000, 0.000000000000000000, 0.000000000000000000 ) ) ;
#321 = CARTESIAN_POINT ( 'NONE',  ( 0.000000000000000000, 0.000000000000000000, 0.000000000000000000 ) ) ;
#322 = AXIS2_PLACEMENT_3D ( 'NONE', #176, #366, #96 ) ;
#323 = CARTESIAN_POINT ( 'NONE',  ( 0.000000000000000000, 0.000000000000000000, 0.000000000000000000 ) ) ;
#324 = CIRCLE ( 'NONE', #385, 0.3125000000000000000 ) ;
#325 = DIMENSIONAL_EXPONENTS ( 1.000000000000000000, 0.000000000000000000, 0.000000000000000000, 0.000000000000000000, 0.000000000000000000, 0.000000000000000000, 0.000000000000000000 ) ;
#326 = DIRECTION ( 'NONE',  ( 0.000000000000000000, 0.000000000000000000, 1.000000000000000000 ) ) ;
#327 = ADVANCED_FACE ( 'NONE', ( #136 ), #262, .T. ) ;
#328 = LINE ( 'NONE', #360, #51 ) ;
#329 = CYLINDRICAL_SURFACE ( 'NONE', #155, 0.1405000000000000138 ) ;
#330 = PRESENTATION_LAYER_ASSIGNMENT (  '', '', ( #116 ) ) ;
#331 = DIRECTION ( 'NONE',  ( 0.7071067811865472397, 8.659560562354934091E-17, 0.7071067811865479058 ) ) ;
#332 = DIRECTION ( 'NONE',  ( 1.000000000000000000, -0.000000000000000000, -0.000000000000000000 ) ) ;
#333 = ORIENTED_EDGE ( 'NONE', *, *, #178, .T. ) ;
#334 = ORIENTED_EDGE ( 'NONE', *, *, #153, .F. ) ;
#335 = ORIENTED_EDGE ( 'NONE', *, *, #118, .F. ) ;
#336 = VECTOR ( 'NONE', #331, 39.37007874015748143 ) ;
#337 = AXIS2_PLACEMENT_3D ( 'NONE', #40, #123, #10 ) ;
#338 = LENGTH_MEASURE_WITH_UNIT ( LENGTH_MEASURE( 0.02539999999999999897 ), #125 );
#339 = ORIENTED_EDGE ( 'NONE', *, *, #108, .F. ) ;
#340 = EDGE_CURVE ( 'NONE', #223, #121, #90, .T. ) ;
#341 = CARTESIAN_POINT ( 'NONE',  ( -0.2500000000000000000, 1.720628752802031144E-17, -0.1405000000000000138 ) ) ;
#342 = PRODUCT_RELATED_PRODUCT_CATEGORY ( 'part', '', ( #159 ) ) ;
#343 = FILL_AREA_STYLE ('',( #11 ) ) ;
#344 = AXIS2_PLACEMENT_3D ( 'NONE', #209, #332, #173 ) ;
#345 = VERTEX_POINT ( 'NONE', #113 ) ;
#346 = CARTESIAN_POINT ( 'NONE',  ( -1.969999999999999973, 0.000000000000000000, 0.000000000000000000 ) ) ;
#347 =( NAMED_UNIT ( * ) PLANE_ANGLE_UNIT ( ) SI_UNIT ( $, .RADIAN. ) );
#348 = DIRECTION ( 'NONE',  ( 1.000000000000000000, -0.000000000000000000, 5.463695987330561698E-16 ) ) ;
#349 = CIRCLE ( 'NONE', #310, 0.2199999999995600197 ) ;
#350 = CARTESIAN_POINT ( 'NONE',  ( 0.000000000000000000, 0.000000000000000000, 0.1405000000000000138 ) ) ;
#351 = DIRECTION ( 'NONE',  ( 0.000000000000000000, 0.000000000000000000, -1.000000000000000000 ) ) ;
#352 = FACE_OUTER_BOUND ( 'NONE', #237, .T. ) ;
#353 = ADVANCED_FACE ( 'NONE', ( #364 ), #329, .T. ) ;
#354 = LINE ( 'NONE', #98, #138 ) ;
#355 = DIMENSIONAL_EXPONENTS ( 1.000000000000000000, 0.000000000000000000, 0.000000000000000000, 0.000000000000000000, 0.000000000000000000, 0.000000000000000000, 0.000000000000000000 ) ;
#356 = CIRCLE ( 'NONE', #245, 0.1405000000000000138 ) ;
#357 = EDGE_CURVE ( 'NONE', #345, #8, #114, .T. ) ;
#358 = CARTESIAN_POINT ( 'NONE',  ( -0.4390000000000000013, 3.061616997865108013E-17, -0.2499999999997325473 ) ) ;
#359 = EDGE_CURVE ( 'NONE', #247, #28, #324, .T. ) ;
#360 = CARTESIAN_POINT ( 'NONE',  ( 0.000000000000000000, 1.720628752802031144E-17, -0.1405000000000000138 ) ) ;
#361 = EDGE_LOOP ( 'NONE', ( #13, #66, #112, #94 ) ) ;
#362 = CARTESIAN_POINT ( 'NONE',  ( -1.969999999999999973, 0.000000000000000000, 0.000000000000000000 ) ) ;
#363 = AXIS2_PLACEMENT_3D ( 'NONE', #26, #32, #144 ) ;
#364 = FACE_OUTER_BOUND ( 'NONE', #91, .T. ) ;
#365 = VERTEX_POINT ( 'NONE', #18 ) ;
#366 = DIRECTION ( 'NONE',  ( 0.000000000000000000, 0.000000000000000000, 1.000000000000000000 ) ) ;
#367 = PLANE ( 'NONE',  #337 ) ;
#368 = AXIS2_PLACEMENT_3D ( 'NONE', #164, #170, #140 ) ;
#369 = ADVANCED_FACE ( 'NONE', ( #186 ), #188, .T. ) ;
#370 = CLOSED_SHELL ( 'NONE', ( #16, #38, #64, #95, #369, #225, #286, #258, #73, #213, #353, #137, #327, #45 ) ) ;
#371 =( NAMED_UNIT ( * ) PLANE_ANGLE_UNIT ( ) SI_UNIT ( $, .RADIAN. ) );
#372 = SURFACE_STYLE_FILL_AREA ( #343 ) ;
#373 = APPLICATION_PROTOCOL_DEFINITION ( 'draft international standard', 'automotive_design', 1998, #266 ) ;
#374 = CARTESIAN_POINT ( 'NONE',  ( -0.2500000000000000000, 0.000000000000000000, 0.000000000000000000 ) ) ;
#375 = CARTESIAN_POINT ( 'NONE',  ( -0.2499999999999069078, 0.000000000000000000, 0.000000000000000000 ) ) ;
#376 = DIRECTION ( 'NONE',  ( 0.000000000000000000, 0.000000000000000000, -1.000000000000000000 ) ) ;
#377 = ORIENTED_EDGE ( 'NONE', *, *, #357, .F. ) ;
#378 = DIRECTION ( 'NONE',  ( 0.000000000000000000, 0.000000000000000000, -1.000000000000000000 ) ) ;
#379 = CARTESIAN_POINT ( 'NONE',  ( 0.000000000000000000, 0.000000000000000000, 0.000000000000000000 ) ) ;
#380 = EDGE_CURVE ( 'NONE', #309, #89, #27, .T. ) ;
#381 = DIRECTION ( 'NONE',  ( 1.000000000000000000, 0.000000000000000000, 0.000000000000000000 ) ) ;
#382 = DIRECTION ( 'NONE',  ( -1.000000000000000000, 0.000000000000000000, 0.000000000000000000 ) ) ;
#383 = CARTESIAN_POINT ( 'NONE',  ( -1.969999999999999973, 3.061616997853877222E-17, 0.2499999999988155308 ) ) ;
#384 = CYLINDRICAL_SURFACE ( 'NONE', #227, 0.2500000000000000000 ) ;
#385 = AXIS2_PLACEMENT_3D ( 'NONE', #72, #314, #378 ) ;
#386 = ORIENTED_EDGE ( 'NONE', *, *, #315, .T. ) ;
#387 = DIRECTION ( 'NONE',  ( -1.000000000000000000, 0.000000000000000000, 0.000000000000000000 ) ) ;
#388 = EDGE_LOOP ( 'NONE', ( #171, #386, #58, #339 ) ) ;
#389 = DIRECTION ( 'NONE',  ( 1.000000000000000000, 0.000000000000000000, 0.000000000000000000 ) ) ;
#390 = ORIENTED_EDGE ( 'NONE', *, *, #153, .T. ) ;
#391 = CARTESIAN_POINT ( 'NONE',  ( 0.000000000000000000, 3.827021247335478926E-17, 0.3125000000000000000 ) ) ;
ENDSEC;
END-ISO-10303-21;
