ISO-10303-21;
HEADER;
FILE_DESCRIPTION (( 'STEP AP214' ),
    '1' );
FILE_NAME ('03-3401.STEP',
    '2025-07-09T15:25:03',
    ( '' ),
    ( '' ),
    'SwSTEP 2.0',
    'SolidWorks 2023',
    '' );
FILE_SCHEMA (( 'AUTOMOTIVE_DESIGN' ));
ENDSEC;

DATA;
#1 = CIRCLE ( 'NONE', #223, 0.3125000000000000000 ) ;
#2 = ORIENTED_EDGE ( 'NONE', *, *, #387, .F. ) ;
#3 = FACE_OUTER_BOUND ( 'NONE', #170, .T. ) ;
#4 = ORIENTED_EDGE ( 'NONE', *, *, #372, .T. ) ;
#5 = DIRECTION ( 'NONE',  ( 0.000000000000000000, 0.000000000000000000, -1.000000000000000000 ) ) ;
#6 = AXIS2_PLACEMENT_3D ( 'NONE', #265, #379, #231 ) ;
#7 = PRODUCT_RELATED_PRODUCT_CATEGORY ( 'part', '', ( #139 ) ) ;
#8 = CARTESIAN_POINT ( 'NONE',  ( 0.000000000000000000, 0.000000000000000000, 0.000000000000000000 ) ) ;
#9 = CARTESIAN_POINT ( 'NONE',  ( -0.2500000000000000000, 1.720628752802031144E-17, -0.1405000000000000138 ) ) ;
#10 = PRODUCT_DEFINITION ( 'UNKNOWN', '', #156, #215 ) ;
#11 = DIRECTION ( 'NONE',  ( 1.092739197466112142E-15, 0.000000000000000000, -1.000000000000000000 ) ) ;
#12 = CARTESIAN_POINT ( 'NONE',  ( 0.09379999999999999449, 0.000000000000000000, -0.3125000000000000000 ) ) ;
#13 = CARTESIAN_POINT ( 'NONE',  ( -2.000000000000000000, 0.000000000000000000, 0.000000000000000000 ) ) ;
#14 = CIRCLE ( 'NONE', #157, 0.1405000000000000138 ) ;
#15 = EDGE_LOOP ( 'NONE', ( #58, #52, #108, #211 ) ) ;
#16 = DIRECTION ( 'NONE',  ( 1.000000000000000000, -0.000000000000000000, 5.463695987330561698E-16 ) ) ;
#17 = DIRECTION ( 'NONE',  ( -1.000000000000000000, -0.000000000000000000, -0.000000000000000000 ) ) ;
#18 = ORIENTED_EDGE ( 'NONE', *, *, #326, .F. ) ;
#19 = DIRECTION ( 'NONE',  ( 0.000000000000000000, 0.000000000000000000, 1.000000000000000000 ) ) ;
#20 = FACE_BOUND ( 'NONE', #342, .T. ) ;
#21 = CIRCLE ( 'NONE', #249, 0.2500000000000000000 ) ;
#22 = DIRECTION ( 'NONE',  ( -1.000000000000000000, 0.000000000000000000, 0.000000000000000000 ) ) ;
#23 = ADVANCED_FACE ( 'NONE', ( #20, #141 ), #82, .F. ) ;
#24 = VERTEX_POINT ( 'NONE', #111 ) ;
#25 = CARTESIAN_POINT ( 'NONE',  ( -0.2499999999999069078, 0.000000000000000000, 0.1408807991235628831 ) ) ;
#26 = ORIENTED_EDGE ( 'NONE', *, *, #218, .T. ) ;
#27 = AXIS2_PLACEMENT_3D ( 'NONE', #246, #48, #173 ) ;
#28 = SURFACE_STYLE_USAGE ( .BOTH. , #321 ) ;
#29 = VERTEX_POINT ( 'NONE', #364 ) ;
#30 = DIRECTION ( 'NONE',  ( 1.000000000000000000, 0.000000000000000000, 0.000000000000000000 ) ) ;
#31 = DIRECTION ( 'NONE',  ( -1.000000000000000000, 0.000000000000000000, 0.000000000000000000 ) ) ;
#32 = EDGE_CURVE ( 'NONE', #337, #278, #220, .T. ) ;
#33 = CARTESIAN_POINT ( 'NONE',  ( -0.2500000000000000000, 0.000000000000000000, 0.000000000000000000 ) ) ;
#34 = CARTESIAN_POINT ( 'NONE',  ( 0.000000000000000000, 3.827021247335478926E-17, 0.3125000000000000000 ) ) ;
#35 = EDGE_CURVE ( 'NONE', #261, #24, #371, .T. ) ;
#36 = DIRECTION ( 'NONE',  ( 1.000000000000000000, -0.000000000000000000, -0.000000000000000000 ) ) ;
#37 = CARTESIAN_POINT ( 'NONE',  ( -0.4390000000003020375, 0.000000000000000000, 0.2499999999999069078 ) ) ;
#38 = ORIENTED_EDGE ( 'NONE', *, *, #295, .F. ) ;
#39 = CLOSED_SHELL ( 'NONE', ( #230, #259, #376, #63, #79, #71, #169, #118, #23, #148, #80, #94, #334, #303 ) ) ;
#40 = CARTESIAN_POINT ( 'NONE',  ( 0.09379999999999999449, 0.000000000000000000, 0.000000000000000000 ) ) ;
#41 = VECTOR ( 'NONE', #83, 39.37007874015748854 ) ;
#42 = ORIENTED_EDGE ( 'NONE', *, *, #309, .T. ) ;
#43 = DIRECTION ( 'NONE',  ( 1.000000000000000000, -0.000000000000000000, -0.000000000000000000 ) ) ;
#44 = ORIENTED_EDGE ( 'NONE', *, *, #32, .F. ) ;
#45 = DIRECTION ( 'NONE',  ( -1.000000000000000000, 0.000000000000000000, 0.000000000000000000 ) ) ;
#46 = ORIENTED_EDGE ( 'NONE', *, *, #353, .F. ) ;
#47 = AXIS2_PLACEMENT_3D ( 'NONE', #88, #84, #348 ) ;
#48 = DIRECTION ( 'NONE',  ( 1.000000000000000000, 0.000000000000000000, 0.000000000000000000 ) ) ;
#49 = VERTEX_POINT ( 'NONE', #114 ) ;
#50 = AXIS2_PLACEMENT_3D ( 'NONE', #288, #31, #122 ) ;
#51 = CIRCLE ( 'NONE', #187, 0.3125000000000000000 ) ;
#52 = ORIENTED_EDGE ( 'NONE', *, *, #326, .T. ) ;
#53 =( CONVERSION_BASED_UNIT ( 'INCH', #388 ) LENGTH_UNIT ( ) NAMED_UNIT ( #268 ) );
#54 = DIRECTION ( 'NONE',  ( -1.000000000000000000, 0.000000000000000000, 0.000000000000000000 ) ) ;
#55 = ORIENTED_EDGE ( 'NONE', *, *, #107, .F. ) ;
#56 = ORIENTED_EDGE ( 'NONE', *, *, #107, .T. ) ;
#57 = DIRECTION ( 'NONE',  ( 1.000000000000000000, -0.000000000000000000, -0.000000000000000000 ) ) ;
#58 = ORIENTED_EDGE ( 'NONE', *, *, #295, .T. ) ;
#59 = ORIENTED_EDGE ( 'NONE', *, *, #97, .T. ) ;
#60 = CIRCLE ( 'NONE', #86, 0.1405000000000000138 ) ;
#61 = DIRECTION ( 'NONE',  ( 1.000000000000000000, 0.000000000000000000, 0.000000000000000000 ) ) ;
#62 = UNCERTAINTY_MEASURE_WITH_UNIT (LENGTH_MEASURE( 1.000000000000000082E-05 ), #53, 'distance_accuracy_value', 'NONE');
#63 = ADVANCED_FACE ( 'NONE', ( #247 ), #369, .T. ) ;
#64 = FACE_OUTER_BOUND ( 'NONE', #95, .T. ) ;
#65 = LINE ( 'NONE', #68, #109 ) ;
#66 = CYLINDRICAL_SURFACE ( 'NONE', #287, 0.2500000000000000000 ) ;
#67 = CIRCLE ( 'NONE', #76, 0.2500000000000000000 ) ;
#68 = CARTESIAN_POINT ( 'NONE',  ( -1.969999999998908180, 0.000000000000000000, -0.2499999999999069078 ) ) ;
#69 = SURFACE_STYLE_FILL_AREA ( #252 ) ;
#70 = CYLINDRICAL_SURFACE ( 'NONE', #365, 0.2500000000000000000 ) ;
#71 = ADVANCED_FACE ( 'NONE', ( #64 ), #66, .T. ) ;
#72 = ORIENTED_EDGE ( 'NONE', *, *, #324, .T. ) ;
#73 = CARTESIAN_POINT ( 'NONE',  ( -0.2499999999999069078, 2.393454597472516536E-17, -0.1408807991235628831 ) ) ;
#74 = AXIS2_PLACEMENT_3D ( 'NONE', #175, #57, #281 ) ;
#75 = FACE_OUTER_BOUND ( 'NONE', #297, .T. ) ;
#76 = AXIS2_PLACEMENT_3D ( 'NONE', #269, #201, #105 ) ;
#77 = ORIENTED_EDGE ( 'NONE', *, *, #387, .T. ) ;
#78 = DIRECTION ( 'NONE',  ( -1.000000000000000000, 0.000000000000000000, 0.000000000000000000 ) ) ;
#79 = ADVANCED_FACE ( 'NONE', ( #345 ), #222, .T. ) ;
#80 = ADVANCED_FACE ( 'NONE', ( #3 ), #290, .T. ) ;
#81 = LINE ( 'NONE', #209, #256 ) ;
#82 = PLANE ( 'NONE',  #263 ) ;
#83 = DIRECTION ( 'NONE',  ( -0.8660254037858737819, 6.123233995706322168E-17, -0.4999999999975140996 ) ) ;
#84 = DIRECTION ( 'NONE',  ( -1.000000000000000000, 0.000000000000000000, 0.000000000000000000 ) ) ;
#85 = CIRCLE ( 'NONE', #50, 0.1408807991235628831 ) ;
#86 = AXIS2_PLACEMENT_3D ( 'NONE', #128, #45, #327 ) ;
#87 = CARTESIAN_POINT ( 'NONE',  ( -0.4390000000000000013, 0.000000000000000000, 0.000000000000000000 ) ) ;
#88 = CARTESIAN_POINT ( 'NONE',  ( 0.000000000000000000, 0.000000000000000000, 0.000000000000000000 ) ) ;
#89 = DIRECTION ( 'NONE',  ( 1.092739197466112142E-15, 0.000000000000000000, -1.000000000000000000 ) ) ;
#90 = EDGE_LOOP ( 'NONE', ( #244, #285 ) ) ;
#91 = LENGTH_MEASURE_WITH_UNIT ( LENGTH_MEASURE( 0.02539999999999999897 ), #155 );
#92 = CIRCLE ( 'NONE', #313, 0.2199999999995600197 ) ;
#93 = DIRECTION ( 'NONE',  ( 0.000000000000000000, 0.000000000000000000, 1.000000000000000000 ) ) ;
#94 = ADVANCED_FACE ( 'NONE', ( #323, #117 ), #224, .F. ) ;
#95 = EDGE_LOOP ( 'NONE', ( #276, #26, #100, #163 ) ) ;
#96 = MANIFOLD_SOLID_BREP ( 'Body1', #39 ) ;
#97 = EDGE_CURVE ( 'NONE', #298, #362, #85, .T. ) ;
#98 = COLOUR_RGB ( '',0.6274509803921568540, 0.6274509803921568540, 0.6274509803921568540 ) ;
#99 = CARTESIAN_POINT ( 'NONE',  ( 0.000000000000000000, 0.000000000000000000, -0.3125000000000000000 ) ) ;
#100 = ORIENTED_EDGE ( 'NONE', *, *, #363, .T. ) ;
#101 = DIRECTION ( 'NONE',  ( 0.000000000000000000, 0.000000000000000000, -1.000000000000000000 ) ) ;
#102 = LINE ( 'NONE', #37, #316 ) ;
#103 = CARTESIAN_POINT ( 'NONE',  ( -0.4390000000003020375, 0.000000000000000000, 0.000000000000000000 ) ) ;
#104 = CONICAL_SURFACE ( 'NONE', #192, 0.2499999999999069078, 0.5235987755954284451 ) ;
#105 = DIRECTION ( 'NONE',  ( 0.000000000000000000, 0.000000000000000000, 1.000000000000000000 ) ) ;
#106 = DIRECTION ( 'NONE',  ( 0.000000000000000000, 0.000000000000000000, 1.000000000000000000 ) ) ;
#107 = EDGE_CURVE ( 'NONE', #174, #131, #325, .T. ) ;
#108 = ORIENTED_EDGE ( 'NONE', *, *, #35, .F. ) ;
#109 = VECTOR ( 'NONE', #221, 39.37007874015748143 ) ;
#110 = CARTESIAN_POINT ( 'NONE',  ( 0.000000000000000000, 0.000000000000000000, 0.000000000000000000 ) ) ;
#111 = CARTESIAN_POINT ( 'NONE',  ( -0.4390000000000000013, 3.061616997865108013E-17, -0.2499999999997325473 ) ) ;
#112 = VERTEX_POINT ( 'NONE', #9 ) ;
#113 = FACE_OUTER_BOUND ( 'NONE', #266, .T. ) ;
#114 = CARTESIAN_POINT ( 'NONE',  ( -0.2500000000000000000, 0.000000000000000000, 0.1405000000000000138 ) ) ;
#115 = VERTEX_POINT ( 'NONE', #34 ) ;
#116 = DIRECTION ( 'NONE',  ( -1.000000000000000000, 0.000000000000000000, 0.000000000000000000 ) ) ;
#117 = FACE_OUTER_BOUND ( 'NONE', #273, .T. ) ;
#118 = ADVANCED_FACE ( 'NONE', ( #349 ), #152, .T. ) ;
#119 = ORIENTED_EDGE ( 'NONE', *, *, #227, .T. ) ;
#120 = AXIS2_PLACEMENT_3D ( 'NONE', #315, #61, #183 ) ;
#121 = CARTESIAN_POINT ( 'NONE',  ( 0.000000000000000000, 3.827021247335478926E-17, 0.3125000000000000000 ) ) ;
#122 = DIRECTION ( 'NONE',  ( 0.000000000000000000, 0.000000000000000000, 1.000000000000000000 ) ) ;
#123 = APPLICATION_CONTEXT ( 'automotive_design' ) ;
#124 = CARTESIAN_POINT ( 'NONE',  ( -1.969999999998908624, 3.061616997867242867E-17, 0.2499999999999069078 ) ) ;
#125 = AXIS2_PLACEMENT_3D ( 'NONE', #110, #390, #385 ) ;
#126 = FACE_OUTER_BOUND ( 'NONE', #203, .T. ) ;
#127 =( LENGTH_UNIT ( ) NAMED_UNIT ( * ) SI_UNIT ( $, .METRE. ) );
#128 = CARTESIAN_POINT ( 'NONE',  ( 0.000000000000000000, 0.000000000000000000, 0.000000000000000000 ) ) ;
#129 = AXIS2_PLACEMENT_3D ( 'NONE', #286, #30, #5 ) ;
#130 = CARTESIAN_POINT ( 'NONE',  ( -0.4390000000000000013, 0.000000000000000000, 0.2499999999997325473 ) ) ;
#131 = VERTEX_POINT ( 'NONE', #190 ) ;
#132 = DIRECTION ( 'NONE',  ( 1.000000000000000000, -0.000000000000000000, 5.463695987330561698E-16 ) ) ;
#133 = PLANE ( 'NONE',  #235 ) ;
#134 = ORIENTED_EDGE ( 'NONE', *, *, #363, .F. ) ;
#135 = EDGE_CURVE ( 'NONE', #338, #176, #65, .T. ) ;
#136 = CARTESIAN_POINT ( 'NONE',  ( -1.969999999999999973, 0.000000000000000000, 0.000000000000000000 ) ) ;
#137 = CARTESIAN_POINT ( 'NONE',  ( 0.000000000000000000, 0.000000000000000000, 0.1405000000000000138 ) ) ;
#138 = CARTESIAN_POINT ( 'NONE',  ( -0.2500000000000000000, 0.000000000000000000, 0.000000000000000000 ) ) ;
#139 = PRODUCT ( '03-3401', '03-3401', '', ( #368 ) ) ;
#140 = LINE ( 'NONE', #391, #145 ) ;
#141 = FACE_OUTER_BOUND ( 'NONE', #195, .T. ) ;
#142 = EDGE_CURVE ( 'NONE', #112, #49, #14, .T. ) ;
#143 = ORIENTED_EDGE ( 'NONE', *, *, #248, .T. ) ;
#144 = ORIENTED_EDGE ( 'NONE', *, *, #227, .F. ) ;
#145 = VECTOR ( 'NONE', #366, 39.37007874015748143 ) ;
#146 = PRESENTATION_STYLE_ASSIGNMENT (( #28 ) ) ;
#147 = ORIENTED_EDGE ( 'NONE', *, *, #135, .T. ) ;
#148 = ADVANCED_FACE ( 'NONE', ( #126 ), #133, .T. ) ;
#149 = CARTESIAN_POINT ( 'NONE',  ( 0.000000000000000000, 0.000000000000000000, 0.000000000000000000 ) ) ;
#150 =( CONVERSION_BASED_UNIT ( 'INCH', #91 ) LENGTH_UNIT ( ) NAMED_UNIT ( #202 ) );
#151 = PRESENTATION_LAYER_ASSIGNMENT (  '', '', ( #339 ) ) ;
#152 = CONICAL_SURFACE ( 'NONE', #332, 0.2499999999999069078, 0.7853981633974482790 ) ;
#153 = DIRECTION ( 'NONE',  ( 1.000000000000000000, -0.000000000000000000, -0.000000000000000000 ) ) ;
#154 = EDGE_CURVE ( 'NONE', #29, #282, #236, .T. ) ;
#155 =( LENGTH_UNIT ( ) NAMED_UNIT ( * ) SI_UNIT ( $, .METRE. ) );
#156 = PRODUCT_DEFINITION_FORMATION_WITH_SPECIFIED_SOURCE ( 'ANY', '', #139, .NOT_KNOWN. ) ;
#157 = AXIS2_PLACEMENT_3D ( 'NONE', #33, #153, #289 ) ;
#158 = DIRECTION ( 'NONE',  ( 0.000000000000000000, 0.000000000000000000, 1.000000000000000000 ) ) ;
#159 = DIRECTION ( 'NONE',  ( 0.000000000000000000, 0.000000000000000000, 1.000000000000000000 ) ) ;
#160 = ADVANCED_BREP_SHAPE_REPRESENTATION ( '03-3401', ( #96, #125 ), #180 ) ;
#161 = CARTESIAN_POINT ( 'NONE',  ( 0.09379999999999999449, 0.000000000000000000, 0.000000000000000000 ) ) ;
#162 = AXIS2_PLACEMENT_3D ( 'NONE', #103, #78, #194 ) ;
#163 = ORIENTED_EDGE ( 'NONE', *, *, #274, .T. ) ;
#164 = DIRECTION ( 'NONE',  ( 1.000000000000000000, 0.000000000000000000, 0.000000000000000000 ) ) ;
#165 = ORIENTED_EDGE ( 'NONE', *, *, #191, .T. ) ;
#166 = CARTESIAN_POINT ( 'NONE',  ( -0.2500000000000000000, 0.000000000000000000, 0.000000000000000000 ) ) ;
#167 = ORIENTED_EDGE ( 'NONE', *, *, #154, .F. ) ;
#168 =( GEOMETRIC_REPRESENTATION_CONTEXT ( 3 ) GLOBAL_UNCERTAINTY_ASSIGNED_CONTEXT ( ( #343 ) ) GLOBAL_UNIT_ASSIGNED_CONTEXT ( ( #150, #347, #184 ) ) REPRESENTATION_CONTEXT ( 'NONE', 'WORKASPACE' ) );
#169 = ADVANCED_FACE ( 'NONE', ( #75 ), #257, .T. ) ;
#170 = EDGE_LOOP ( 'NONE', ( #46, #119, #165, #241 ) ) ;
#171 = CIRCLE ( 'NONE', #6, 0.1408807991235628831 ) ;
#172 = PRODUCT_DEFINITION_SHAPE ( 'NONE', 'NONE',  #10 ) ;
#173 = DIRECTION ( 'NONE',  ( 0.000000000000000000, 0.000000000000000000, -1.000000000000000000 ) ) ;
#174 = VERTEX_POINT ( 'NONE', #328 ) ;
#175 = CARTESIAN_POINT ( 'NONE',  ( -0.2500000000000000000, 0.000000000000000000, 0.000000000000000000 ) ) ;
#176 = VERTEX_POINT ( 'NONE', #262 ) ;
#177 = ORIENTED_EDGE ( 'NONE', *, *, #248, .F. ) ;
#178 = APPLICATION_PROTOCOL_DEFINITION ( 'draft international standard', 'automotive_design', 1998, #216 ) ;
#179 = EDGE_LOOP ( 'NONE', ( #56, #302, #331, #357 ) ) ;
#180 =( GEOMETRIC_REPRESENTATION_CONTEXT ( 3 ) GLOBAL_UNCERTAINTY_ASSIGNED_CONTEXT ( ( #62 ) ) GLOBAL_UNIT_ASSIGNED_CONTEXT ( ( #53, #245, #312 ) ) REPRESENTATION_CONTEXT ( 'NONE', 'WORKASPACE' ) );
#181 = ORIENTED_EDGE ( 'NONE', *, *, #32, .T. ) ;
#182 = CIRCLE ( 'NONE', #228, 0.3125000000000000000 ) ;
#183 = DIRECTION ( 'NONE',  ( 0.000000000000000000, 0.000000000000000000, -1.000000000000000000 ) ) ;
#184 =( NAMED_UNIT ( * ) SI_UNIT ( $, .STERADIAN. ) SOLID_ANGLE_UNIT ( ) );
#185 = DIRECTION ( 'NONE',  ( -1.000000000000000000, 0.000000000000000000, 0.000000000000000000 ) ) ;
#186 = EDGE_CURVE ( 'NONE', #282, #206, #346, .T. ) ;
#187 = AXIS2_PLACEMENT_3D ( 'NONE', #314, #207, #344 ) ;
#188 = DIRECTION ( 'NONE',  ( 0.000000000000000000, 0.000000000000000000, 1.000000000000000000 ) ) ;
#189 = CARTESIAN_POINT ( 'NONE',  ( -1.969999999998908402, 0.000000000000000000, 0.000000000000000000 ) ) ;
#190 = CARTESIAN_POINT ( 'NONE',  ( 0.000000000000000000, 1.720628752802031144E-17, -0.1405000000000000138 ) ) ;
#191 = EDGE_CURVE ( 'NONE', #174, #49, #361, .T. ) ;
#192 = AXIS2_PLACEMENT_3D ( 'NONE', #356, #358, #19 ) ;
#193 = DIRECTION ( 'NONE',  ( 1.000000000000000000, 0.000000000000000000, 0.000000000000000000 ) ) ;
#194 = DIRECTION ( 'NONE',  ( 0.000000000000000000, 0.000000000000000000, 1.000000000000000000 ) ) ;
#195 = EDGE_LOOP ( 'NONE', ( #38, #232 ) ) ;
#196 = FACE_OUTER_BOUND ( 'NONE', #90, .T. ) ;
#197 = ORIENTED_EDGE ( 'NONE', *, *, #135, .F. ) ;
#198 = AXIS2_PLACEMENT_3D ( 'NONE', #8, #373, #188 ) ;
#199 = DIRECTION ( 'NONE',  ( 0.000000000000000000, 0.000000000000000000, -1.000000000000000000 ) ) ;
#200 = ORIENTED_EDGE ( 'NONE', *, *, #154, .T. ) ;
#201 = DIRECTION ( 'NONE',  ( -1.000000000000000000, 0.000000000000000000, 0.000000000000000000 ) ) ;
#202 = DIMENSIONAL_EXPONENTS ( 1.000000000000000000, 0.000000000000000000, 0.000000000000000000, 0.000000000000000000, 0.000000000000000000, 0.000000000000000000, 0.000000000000000000 ) ;
#203 = EDGE_LOOP ( 'NONE', ( #177, #2 ) ) ;
#204 = SHAPE_DEFINITION_REPRESENTATION ( #172, #160 ) ;
#205 = LINE ( 'NONE', #212, #41 ) ;
#206 = VERTEX_POINT ( 'NONE', #378 ) ;
#207 = DIRECTION ( 'NONE',  ( 1.000000000000000000, 0.000000000000000000, 0.000000000000000000 ) ) ;
#208 = AXIS2_PLACEMENT_3D ( 'NONE', #40, #164, #301 ) ;
#209 = CARTESIAN_POINT ( 'NONE',  ( -0.2500000000000000000, 0.000000000000000000, 0.2500000000000000000 ) ) ;
#210 = ORIENTED_EDGE ( 'NONE', *, *, #35, .T. ) ;
#211 = ORIENTED_EDGE ( 'NONE', *, *, #239, .F. ) ;
#212 = CARTESIAN_POINT ( 'NONE',  ( -0.4390000000003020375, 3.061616997867242867E-17, -0.2499999999999069078 ) ) ;
#213 = CARTESIAN_POINT ( 'NONE',  ( -0.2500000000000000000, 0.000000000000000000, 0.000000000000000000 ) ) ;
#214 = CIRCLE ( 'NONE', #271, 0.2500000000000000000 ) ;
#215 = PRODUCT_DEFINITION_CONTEXT ( 'detailed design', #216, 'design' ) ;
#216 = APPLICATION_CONTEXT ( 'automotive_design' ) ;
#217 = FILL_AREA_STYLE_COLOUR ( '', #98 ) ;
#218 = EDGE_CURVE ( 'NONE', #24, #261, #67, .T. ) ;
#219 = DIRECTION ( 'NONE',  ( 1.000000000000000000, -0.000000000000000000, 5.463695987330561698E-16 ) ) ;
#220 = LINE ( 'NONE', #124, #255 ) ;
#221 = DIRECTION ( 'NONE',  ( 0.7071067811865479058, 0.000000000000000000, -0.7071067811865472397 ) ) ;
#222 = CYLINDRICAL_SURFACE ( 'NONE', #120, 0.3125000000000000000 ) ;
#223 = AXIS2_PLACEMENT_3D ( 'NONE', #306, #275, #284 ) ;
#224 = PLANE ( 'NONE',  #129 ) ;
#225 = ORIENTED_EDGE ( 'NONE', *, *, #309, .F. ) ;
#226 = FACE_OUTER_BOUND ( 'NONE', #355, .T. ) ;
#227 = EDGE_CURVE ( 'NONE', #131, #174, #60, .T. ) ;
#228 = AXIS2_PLACEMENT_3D ( 'NONE', #296, #17, #272 ) ;
#229 = CARTESIAN_POINT ( 'NONE',  ( -1.999999999999255262, 0.000000000000000000, -1.639108796218122113E-17 ) ) ;
#230 = ADVANCED_FACE ( 'NONE', ( #267 ), #70, .T. ) ;
#231 = DIRECTION ( 'NONE',  ( 0.000000000000000000, 0.000000000000000000, 1.000000000000000000 ) ) ;
#232 = ORIENTED_EDGE ( 'NONE', *, *, #97, .F. ) ;
#233 = DIRECTION ( 'NONE',  ( -0.8660254037858737819, 0.000000000000000000, 0.4999999999975140996 ) ) ;
#234 = EDGE_LOOP ( 'NONE', ( #44, #77, #147, #367 ) ) ;
#235 = AXIS2_PLACEMENT_3D ( 'NONE', #13, #336, #159 ) ;
#236 = LINE ( 'NONE', #99, #243 ) ;
#237 = ORIENTED_EDGE ( 'NONE', *, *, #279, .F. ) ;
#238 = DIRECTION ( 'NONE',  ( -1.000000000000000000, 0.000000000000000000, 0.000000000000000000 ) ) ;
#239 = EDGE_CURVE ( 'NONE', #362, #261, #102, .T. ) ;
#240 = CARTESIAN_POINT ( 'NONE',  ( -0.2500000000000000000, 3.061616997868383018E-17, -0.2500000000000000000 ) ) ;
#241 = ORIENTED_EDGE ( 'NONE', *, *, #370, .T. ) ;
#242 = ORIENTED_EDGE ( 'NONE', *, *, #324, .F. ) ;
#243 = VECTOR ( 'NONE', #193, 39.37007874015748143 ) ;
#244 = ORIENTED_EDGE ( 'NONE', *, *, #186, .F. ) ;
#245 =( NAMED_UNIT ( * ) PLANE_ANGLE_UNIT ( ) SI_UNIT ( $, .RADIAN. ) );
#246 = CARTESIAN_POINT ( 'NONE',  ( 0.000000000000000000, 0.000000000000000000, 0.000000000000000000 ) ) ;
#247 = FACE_OUTER_BOUND ( 'NONE', #179, .T. ) ;
#248 = EDGE_CURVE ( 'NONE', #338, #337, #322, .T. ) ;
#249 = AXIS2_PLACEMENT_3D ( 'NONE', #386, #43, #294 ) ;
#250 = DIRECTION ( 'NONE',  ( 1.000000000000000000, 0.000000000000000000, 0.000000000000000000 ) ) ;
#251 = CARTESIAN_POINT ( 'NONE',  ( -1.969999999998908402, 0.000000000000000000, 0.000000000000000000 ) ) ;
#252 = FILL_AREA_STYLE ('',( #217 ) ) ;
#253 = LINE ( 'NONE', #121, #258 ) ;
#254 = DIRECTION ( 'NONE',  ( 0.7071067811865472397, 8.659560562354934091E-17, 0.7071067811865479058 ) ) ;
#255 = VECTOR ( 'NONE', #254, 39.37007874015748143 ) ;
#256 = VECTOR ( 'NONE', #54, 39.37007874015748143 ) ;
#257 = CONICAL_SURFACE ( 'NONE', #162, 0.2499999999999069078, 0.5235987755954284451 ) ;
#258 = VECTOR ( 'NONE', #250, 39.37007874015748143 ) ;
#259 = ADVANCED_FACE ( 'NONE', ( #304 ), #104, .T. ) ;
#260 = CARTESIAN_POINT ( 'NONE',  ( -1.999999999999255262, 0.000000000000000000, -1.639108796218122113E-17 ) ) ;
#261 = VERTEX_POINT ( 'NONE', #130 ) ;
#262 = CARTESIAN_POINT ( 'NONE',  ( -1.969999999999999973, 0.000000000000000000, -0.2499999999988150035 ) ) ;
#263 = AXIS2_PLACEMENT_3D ( 'NONE', #138, #22, #106 ) ;
#264 = EDGE_CURVE ( 'NONE', #206, #282, #182, .T. ) ;
#265 = CARTESIAN_POINT ( 'NONE',  ( -0.2499999999999069078, 0.000000000000000000, 0.000000000000000000 ) ) ;
#266 = EDGE_LOOP ( 'NONE', ( #311, #42, #200, #389 ) ) ;
#267 = FACE_OUTER_BOUND ( 'NONE', #283, .T. ) ;
#268 = DIMENSIONAL_EXPONENTS ( 1.000000000000000000, 0.000000000000000000, 0.000000000000000000, 0.000000000000000000, 0.000000000000000000, 0.000000000000000000, 0.000000000000000000 ) ;
#269 = CARTESIAN_POINT ( 'NONE',  ( -0.4390000000000000013, 0.000000000000000000, 0.000000000000000000 ) ) ;
#270 = ORIENTED_EDGE ( 'NONE', *, *, #239, .T. ) ;
#271 = AXIS2_PLACEMENT_3D ( 'NONE', #136, #36, #158 ) ;
#272 = DIRECTION ( 'NONE',  ( 0.000000000000000000, 0.000000000000000000, -1.000000000000000000 ) ) ;
#273 = EDGE_LOOP ( 'NONE', ( #242, #225 ) ) ;
#274 = EDGE_CURVE ( 'NONE', #278, #176, #214, .T. ) ;
#275 = DIRECTION ( 'NONE',  ( 1.000000000000000000, 0.000000000000000000, 0.000000000000000000 ) ) ;
#276 = ORIENTED_EDGE ( 'NONE', *, *, #319, .F. ) ;
#277 = CARTESIAN_POINT ( 'NONE',  ( -1.999999999999255262, 0.000000000000000000, -0.2199999999995600197 ) ) ;
#278 = VERTEX_POINT ( 'NONE', #333 ) ;
#279 = EDGE_CURVE ( 'NONE', #176, #278, #21, .T. ) ;
#280 = APPLICATION_PROTOCOL_DEFINITION ( 'draft international standard', 'automotive_design', 1998, #123 ) ;
#281 = DIRECTION ( 'NONE',  ( 0.000000000000000000, 0.000000000000000000, 1.000000000000000000 ) ) ;
#282 = VERTEX_POINT ( 'NONE', #12 ) ;
#283 = EDGE_LOOP ( 'NONE', ( #210, #335, #329, #134 ) ) ;
#284 = DIRECTION ( 'NONE',  ( 0.000000000000000000, 0.000000000000000000, -1.000000000000000000 ) ) ;
#285 = ORIENTED_EDGE ( 'NONE', *, *, #264, .F. ) ;
#286 = CARTESIAN_POINT ( 'NONE',  ( 0.000000000000000000, 0.000000000000000000, 0.000000000000000000 ) ) ;
#287 = AXIS2_PLACEMENT_3D ( 'NONE', #213, #374, #320 ) ;
#288 = CARTESIAN_POINT ( 'NONE',  ( -0.2499999999999069078, 0.000000000000000000, 0.000000000000000000 ) ) ;
#289 = DIRECTION ( 'NONE',  ( 0.000000000000000000, 0.000000000000000000, 1.000000000000000000 ) ) ;
#290 = CYLINDRICAL_SURFACE ( 'NONE', #377, 0.1405000000000000138 ) ;
#291 = CIRCLE ( 'NONE', #74, 0.1405000000000000138 ) ;
#292 = VECTOR ( 'NONE', #238, 39.37007874015748143 ) ;
#293 = CONICAL_SURFACE ( 'NONE', #360, 0.2499999999999069078, 0.7853981633974482790 ) ;
#294 = DIRECTION ( 'NONE',  ( 0.000000000000000000, 0.000000000000000000, 1.000000000000000000 ) ) ;
#295 = EDGE_CURVE ( 'NONE', #362, #298, #171, .T. ) ;
#296 = CARTESIAN_POINT ( 'NONE',  ( 0.09379999999999999449, 0.000000000000000000, 0.000000000000000000 ) ) ;
#297 = EDGE_LOOP ( 'NONE', ( #18, #59, #270, #383 ) ) ;
#298 = VERTEX_POINT ( 'NONE', #73 ) ;
#299 = AXIS2_PLACEMENT_3D ( 'NONE', #229, #16, #199 ) ;
#300 = DIRECTION ( 'NONE',  ( -1.000000000000000000, 0.000000000000000000, 0.000000000000000000 ) ) ;
#301 = DIRECTION ( 'NONE',  ( 0.000000000000000000, 0.000000000000000000, -1.000000000000000000 ) ) ;
#302 = ORIENTED_EDGE ( 'NONE', *, *, #353, .T. ) ;
#303 = ADVANCED_FACE ( 'NONE', ( #196 ), #330, .T. ) ;
#304 = FACE_OUTER_BOUND ( 'NONE', #15, .T. ) ;
#305 = AXIS2_PLACEMENT_3D ( 'NONE', #87, #352, #93 ) ;
#306 = CARTESIAN_POINT ( 'NONE',  ( 0.000000000000000000, 0.000000000000000000, 0.000000000000000000 ) ) ;
#307 = ORIENTED_EDGE ( 'NONE', *, *, #264, .T. ) ;
#308 = ORIENTED_EDGE ( 'NONE', *, *, #370, .F. ) ;
#309 = EDGE_CURVE ( 'NONE', #115, #29, #51, .T. ) ;
#310 = LINE ( 'NONE', #240, #351 ) ;
#311 = ORIENTED_EDGE ( 'NONE', *, *, #372, .F. ) ;
#312 =( NAMED_UNIT ( * ) SI_UNIT ( $, .STERADIAN. ) SOLID_ANGLE_UNIT ( ) );
#313 = AXIS2_PLACEMENT_3D ( 'NONE', #260, #132, #101 ) ;
#314 = CARTESIAN_POINT ( 'NONE',  ( 0.000000000000000000, 0.000000000000000000, 0.000000000000000000 ) ) ;
#315 = CARTESIAN_POINT ( 'NONE',  ( 0.000000000000000000, 0.000000000000000000, 0.000000000000000000 ) ) ;
#316 = VECTOR ( 'NONE', #233, 39.37007874015748854 ) ;
#317 = CARTESIAN_POINT ( 'NONE',  ( -1.999999999999255262, 2.877919977993585991E-17, 0.2199999999995600197 ) ) ;
#318 = DIRECTION ( 'NONE',  ( 0.000000000000000000, 0.000000000000000000, 1.000000000000000000 ) ) ;
#319 = EDGE_CURVE ( 'NONE', #24, #176, #310, .T. ) ;
#320 = DIRECTION ( 'NONE',  ( 0.000000000000000000, 0.000000000000000000, 1.000000000000000000 ) ) ;
#321 = SURFACE_SIDE_STYLE ('',( #69 ) ) ;
#322 = CIRCLE ( 'NONE', #299, 0.2199999999995600197 ) ;
#323 = FACE_BOUND ( 'NONE', #359, .T. ) ;
#324 = EDGE_CURVE ( 'NONE', #29, #115, #1, .T. ) ;
#325 = CIRCLE ( 'NONE', #198, 0.1405000000000000138 ) ;
#326 = EDGE_CURVE ( 'NONE', #298, #24, #205, .T. ) ;
#327 = DIRECTION ( 'NONE',  ( 0.000000000000000000, 0.000000000000000000, 1.000000000000000000 ) ) ;
#328 = CARTESIAN_POINT ( 'NONE',  ( 0.000000000000000000, 0.000000000000000000, 0.1405000000000000138 ) ) ;
#329 = ORIENTED_EDGE ( 'NONE', *, *, #279, .T. ) ;
#330 = PLANE ( 'NONE',  #208 ) ;
#331 = ORIENTED_EDGE ( 'NONE', *, *, #142, .T. ) ;
#332 = AXIS2_PLACEMENT_3D ( 'NONE', #251, #375, #89 ) ;
#333 = CARTESIAN_POINT ( 'NONE',  ( -1.969999999999999973, 3.061616997853877222E-17, 0.2499999999988155308 ) ) ;
#334 = ADVANCED_FACE ( 'NONE', ( #113 ), #340, .T. ) ;
#335 = ORIENTED_EDGE ( 'NONE', *, *, #319, .T. ) ;
#336 = DIRECTION ( 'NONE',  ( -1.000000000000000000, 0.000000000000000000, 0.000000000000000000 ) ) ;
#337 = VERTEX_POINT ( 'NONE', #317 ) ;
#338 = VERTEX_POINT ( 'NONE', #277 ) ;
#339 = STYLED_ITEM ( 'NONE', ( #146 ), #96 ) ;
#340 = CYLINDRICAL_SURFACE ( 'NONE', #27, 0.3125000000000000000 ) ;
#341 = ORIENTED_EDGE ( 'NONE', *, *, #142, .F. ) ;
#342 = EDGE_LOOP ( 'NONE', ( #308, #341 ) ) ;
#343 = UNCERTAINTY_MEASURE_WITH_UNIT (LENGTH_MEASURE( 1.000000000000000082E-05 ), #150, 'distance_accuracy_value', 'NONE');
#344 = DIRECTION ( 'NONE',  ( 0.000000000000000000, 0.000000000000000000, -1.000000000000000000 ) ) ;
#345 = FACE_OUTER_BOUND ( 'NONE', #380, .T. ) ;
#346 = CIRCLE ( 'NONE', #384, 0.3125000000000000000 ) ;
#347 =( NAMED_UNIT ( * ) PLANE_ANGLE_UNIT ( ) SI_UNIT ( $, .RADIAN. ) );
#348 = DIRECTION ( 'NONE',  ( 0.000000000000000000, 0.000000000000000000, 1.000000000000000000 ) ) ;
#349 = FACE_OUTER_BOUND ( 'NONE', #234, .T. ) ;
#350 = MECHANICAL_DESIGN_GEOMETRIC_PRESENTATION_REPRESENTATION (  '', ( #339 ), #168 ) ;
#351 = VECTOR ( 'NONE', #116, 39.37007874015748143 ) ;
#352 = DIRECTION ( 'NONE',  ( -1.000000000000000000, 0.000000000000000000, 0.000000000000000000 ) ) ;
#353 = EDGE_CURVE ( 'NONE', #131, #112, #140, .T. ) ;
#354 = DIRECTION ( 'NONE',  ( -1.000000000000000000, -0.000000000000000000, -0.000000000000000000 ) ) ;
#355 = EDGE_LOOP ( 'NONE', ( #143, #181, #237, #197 ) ) ;
#356 = CARTESIAN_POINT ( 'NONE',  ( -0.4390000000003020375, 0.000000000000000000, 0.000000000000000000 ) ) ;
#357 = ORIENTED_EDGE ( 'NONE', *, *, #191, .F. ) ;
#358 = DIRECTION ( 'NONE',  ( -1.000000000000000000, 0.000000000000000000, 0.000000000000000000 ) ) ;
#359 = EDGE_LOOP ( 'NONE', ( #55, #144 ) ) ;
#360 = AXIS2_PLACEMENT_3D ( 'NONE', #189, #219, #11 ) ;
#361 = LINE ( 'NONE', #137, #292 ) ;
#362 = VERTEX_POINT ( 'NONE', #25 ) ;
#363 = EDGE_CURVE ( 'NONE', #261, #278, #81, .T. ) ;
#364 = CARTESIAN_POINT ( 'NONE',  ( 0.000000000000000000, 0.000000000000000000, -0.3125000000000000000 ) ) ;
#365 = AXIS2_PLACEMENT_3D ( 'NONE', #166, #300, #381 ) ;
#366 = DIRECTION ( 'NONE',  ( -1.000000000000000000, 0.000000000000000000, 0.000000000000000000 ) ) ;
#367 = ORIENTED_EDGE ( 'NONE', *, *, #274, .F. ) ;
#368 = PRODUCT_CONTEXT ( 'NONE', #123, 'mechanical' ) ;
#369 = CYLINDRICAL_SURFACE ( 'NONE', #47, 0.1405000000000000138 ) ;
#370 = EDGE_CURVE ( 'NONE', #49, #112, #291, .T. ) ;
#371 = CIRCLE ( 'NONE', #305, 0.2500000000000000000 ) ;
#372 = EDGE_CURVE ( 'NONE', #115, #206, #253, .T. ) ;
#373 = DIRECTION ( 'NONE',  ( -1.000000000000000000, 0.000000000000000000, 0.000000000000000000 ) ) ;
#374 = DIRECTION ( 'NONE',  ( -1.000000000000000000, 0.000000000000000000, 0.000000000000000000 ) ) ;
#375 = DIRECTION ( 'NONE',  ( 1.000000000000000000, -0.000000000000000000, 5.463695987330561698E-16 ) ) ;
#376 = ADVANCED_FACE ( 'NONE', ( #226 ), #293, .T. ) ;
#377 = AXIS2_PLACEMENT_3D ( 'NONE', #149, #185, #318 ) ;
#378 = CARTESIAN_POINT ( 'NONE',  ( 0.09379999999999999449, 3.827021247335478926E-17, 0.3125000000000000000 ) ) ;
#379 = DIRECTION ( 'NONE',  ( -1.000000000000000000, 0.000000000000000000, 0.000000000000000000 ) ) ;
#380 = EDGE_LOOP ( 'NONE', ( #72, #4, #307, #167 ) ) ;
#381 = DIRECTION ( 'NONE',  ( 0.000000000000000000, 0.000000000000000000, 1.000000000000000000 ) ) ;
#382 = DIRECTION ( 'NONE',  ( 0.000000000000000000, 0.000000000000000000, -1.000000000000000000 ) ) ;
#383 = ORIENTED_EDGE ( 'NONE', *, *, #218, .F. ) ;
#384 = AXIS2_PLACEMENT_3D ( 'NONE', #161, #354, #382 ) ;
#385 = DIRECTION ( 'NONE',  ( 1.000000000000000000, 0.000000000000000000, 0.000000000000000000 ) ) ;
#386 = CARTESIAN_POINT ( 'NONE',  ( -1.969999999999999973, 0.000000000000000000, 0.000000000000000000 ) ) ;
#387 = EDGE_CURVE ( 'NONE', #337, #338, #92, .T. ) ;
#388 = LENGTH_MEASURE_WITH_UNIT ( LENGTH_MEASURE( 0.02539999999999999897 ), #127 );
#389 = ORIENTED_EDGE ( 'NONE', *, *, #186, .T. ) ;
#390 = DIRECTION ( 'NONE',  ( 0.000000000000000000, 0.000000000000000000, 1.000000000000000000 ) ) ;
#391 = CARTESIAN_POINT ( 'NONE',  ( 0.000000000000000000, 1.720628752802031144E-17, -0.1405000000000000138 ) ) ;
ENDSEC;
END-ISO-10303-21;
