ISO-10303-21;
HEADER;
FILE_DESCRIPTION (( 'STEP AP214' ),
    '1' );
FILE_NAME ('05-0413.STEP',
    '2024-07-19T18:01:19',
    ( '' ),
    ( '' ),
    'SwSTEP 2.0',
    'SolidWorks 2022',
    '' );
FILE_SCHEMA (( 'AUTOMOTIVE_DESIGN' ));
ENDSEC;

DATA;
#1 = ADVANCED_FACE ( 'NONE', ( #137, #151 ), #14, .T. ) ;
#2 = EDGE_LOOP ( 'NONE', ( #77 ) ) ;
#3 = CIRCLE ( 'NONE', #139, 6.007099999999991446 ) ;
#4 = CARTESIAN_POINT ( 'NONE',  ( 80.51799999999998647, -2.304091847942272497E-15, 0.000000000000000000 ) ) ;
#5 = DIRECTION ( 'NONE',  ( 1.000000000000000000, -2.861586040316789746E-17, -0.000000000000000000 ) ) ;
#6 = CIRCLE ( 'NONE', #80, 4.381499999999998174 ) ;
#7 = CARTESIAN_POINT ( 'NONE',  ( 73.53299999999998704, 4.940299999999999692, 0.000000000000000000 ) ) ;
#8 = SHAPE_DEFINITION_REPRESENTATION ( #148, #108 ) ;
#9 = DIRECTION ( 'NONE',  ( 0.000000000000000000, -1.000000000000000000, 0.000000000000000000 ) ) ;
#10 = DIRECTION ( 'NONE',  ( 0.000000000000000000, 1.000000000000000000, 0.000000000000000000 ) ) ;
#11 =( NAMED_UNIT ( * ) PLANE_ANGLE_UNIT ( ) SI_UNIT ( $, .RADIAN. ) );
#12 = EDGE_LOOP ( 'NONE', ( #109 ) ) ;
#13 = PRODUCT ( '05-0413', '05-0413', '', ( #128 ) ) ;
#14 = CONICAL_SURFACE ( 'NONE', #62, 5.994399999999994400, 0.0007142855928083966053 ) ;
#15 =( LENGTH_UNIT ( ) NAMED_UNIT ( * ) SI_UNIT ( .MILLI., .METRE. ) );
#16 = DIRECTION ( 'NONE',  ( -1.000000000000000000, 2.861586040316789746E-17, 0.000000000000000000 ) ) ;
#17 = MECHANICAL_DESIGN_GEOMETRIC_PRESENTATION_REPRESENTATION (  '', ( #47 ), #157 ) ;
#18 = EDGE_LOOP ( 'NONE', ( #72 ) ) ;
#19 = APPLICATION_PROTOCOL_DEFINITION ( 'draft international standard', 'automotive_design', 1998, #26 ) ;
#20 = MANIFOLD_SOLID_BREP ( 'Revolve1', #143 ) ;
#21 = VERTEX_POINT ( 'NONE', #82 ) ;
#22 = DIRECTION ( 'NONE',  ( 0.000000000000000000, -1.000000000000000000, 0.000000000000000000 ) ) ;
#23 = CARTESIAN_POINT ( 'NONE',  ( 0.000000000000000000, 0.000000000000000000, 0.000000000000000000 ) ) ;
#24 =( NAMED_UNIT ( * ) PLANE_ANGLE_UNIT ( ) SI_UNIT ( $, .RADIAN. ) );
#25 = COLOUR_RGB ( '',0.5019607843137254832, 0.5019607843137254832, 0.5019607843137254832 ) ;
#26 = APPLICATION_CONTEXT ( 'automotive_design' ) ;
#27 = COLOUR_RGB ( '',0.5019607843137254832, 0.5019607843137254832, 0.5019607843137254832 ) ;
#28 = FACE_OUTER_BOUND ( 'NONE', #12, .T. ) ;
#29 = AXIS2_PLACEMENT_3D ( 'NONE', #118, #104, #37 ) ;
#30 = SURFACE_SIDE_STYLE ('',( #53 ) ) ;
#31 = FILL_AREA_STYLE_COLOUR ( '', #27 ) ;
#32 = PRESENTATION_LAYER_ASSIGNMENT (  '', '', ( #47 ) ) ;
#33 =( LENGTH_UNIT ( ) NAMED_UNIT ( * ) SI_UNIT ( .MILLI., .METRE. ) );
#34 = CARTESIAN_POINT ( 'NONE',  ( 73.53299999999998704, -2.104210063026144899E-15, 0.000000000000000000 ) ) ;
#35 = UNCERTAINTY_MEASURE_WITH_UNIT (LENGTH_MEASURE( 1.000000000000000082E-05 ), #15, 'distance_accuracy_value', 'NONE');
#36 = DIRECTION ( 'NONE',  ( 1.000000000000000000, -2.861586040316789746E-17, -0.000000000000000000 ) ) ;
#37 = DIRECTION ( 'NONE',  ( 0.000000000000000000, 1.000000000000000000, 0.000000000000000000 ) ) ;
#38 = PRODUCT_DEFINITION ( 'UNKNOWN', '', #52, #95 ) ;
#39 = CONICAL_SURFACE ( 'NONE', #73, 4.940300000000000580, 0.02324511209708400583 ) ;
#40 = EDGE_CURVE ( 'NONE', #115, #115, #153, .T. ) ;
#41 = CONICAL_SURFACE ( 'NONE', #29, 6.007099999999990558, 0.5232079367722456409 ) ;
#42 = DIRECTION ( 'NONE',  ( 0.000000000000000000, -1.000000000000000000, 0.000000000000000000 ) ) ;
#43 = ORIENTED_EDGE ( 'NONE', *, *, #84, .F. ) ;
#44 = CARTESIAN_POINT ( 'NONE',  ( 28.19399999999999551, -8.067955682069157348E-16, 0.000000000000000000 ) ) ;
#45 = FACE_BOUND ( 'NONE', #64, .T. ) ;
#46 =( NAMED_UNIT ( * ) SI_UNIT ( $, .STERADIAN. ) SOLID_ANGLE_UNIT ( ) );
#47 = STYLED_ITEM ( 'NONE', ( #89 ), #20 ) ;
#48 = DIRECTION ( 'NONE',  ( -1.000000000000000000, 2.861586040316789746E-17, 0.000000000000000000 ) ) ;
#49 = DIRECTION ( 'NONE',  ( 0.000000000000000000, 1.000000000000000000, 0.000000000000000000 ) ) ;
#50 = SURFACE_STYLE_FILL_AREA ( #156 ) ;
#51 = EDGE_LOOP ( 'NONE', ( #98 ) ) ;
#52 = PRODUCT_DEFINITION_FORMATION_WITH_SPECIFIED_SOURCE ( 'ANY', '', #13, .NOT_KNOWN. ) ;
#53 = SURFACE_STYLE_FILL_AREA ( #136 ) ;
#54 = EDGE_LOOP ( 'NONE', ( #110 ) ) ;
#55 = EDGE_LOOP ( 'NONE', ( #145 ) ) ;
#56 = EDGE_CURVE ( 'NONE', #133, #133, #105, .T. ) ;
#57 = FACE_OUTER_BOUND ( 'NONE', #125, .T. ) ;
#58 = DIRECTION ( 'NONE',  ( 1.000000000000000000, -2.861586040316789746E-17, -0.000000000000000000 ) ) ;
#59 = STYLED_ITEM ( 'NONE', ( #85 ), #108 ) ;
#60 = CARTESIAN_POINT ( 'NONE',  ( 80.51799999999998647, 4.279899999999997817, 0.000000000000000000 ) ) ;
#61 = CARTESIAN_POINT ( 'NONE',  ( 28.19399999999999551, 5.994399999999993511, 0.000000000000000000 ) ) ;
#62 = AXIS2_PLACEMENT_3D ( 'NONE', #124, #16, #42 ) ;
#63 =( NAMED_UNIT ( * ) SI_UNIT ( $, .STERADIAN. ) SOLID_ANGLE_UNIT ( ) );
#64 = EDGE_LOOP ( 'NONE', ( #43 ) ) ;
#65 = ADVANCED_FACE ( 'NONE', ( #57, #45 ), #91, .T. ) ;
#66 = DIRECTION ( 'NONE',  ( 1.000000000000000000, -2.861586040316789746E-17, -0.000000000000000000 ) ) ;
#67 = PLANE ( 'NONE',  #147 ) ;
#68 = FACE_OUTER_BOUND ( 'NONE', #2, .T. ) ;
#69 = UNCERTAINTY_MEASURE_WITH_UNIT (LENGTH_MEASURE( 1.000000000000000082E-05 ), #33, 'distance_accuracy_value', 'NONE');
#70 = ADVANCED_FACE ( 'NONE', ( #28, #74 ), #39, .T. ) ;
#71 = AXIS2_PLACEMENT_3D ( 'NONE', #129, #36, #49 ) ;
#72 = ORIENTED_EDGE ( 'NONE', *, *, #56, .F. ) ;
#73 = AXIS2_PLACEMENT_3D ( 'NONE', #122, #155, #22 ) ;
#74 = FACE_BOUND ( 'NONE', #55, .T. ) ;
#75 = AXIS2_PLACEMENT_3D ( 'NONE', #127, #66, #88 ) ;
#76 = ORIENTED_EDGE ( 'NONE', *, *, #56, .T. ) ;
#77 = ORIENTED_EDGE ( 'NONE', *, *, #78, .F. ) ;
#78 = EDGE_CURVE ( 'NONE', #106, #106, #3, .T. ) ;
#79 = DIRECTION ( 'NONE',  ( 1.000000000000000000, -2.861586040316789746E-17, -0.000000000000000000 ) ) ;
#80 = AXIS2_PLACEMENT_3D ( 'NONE', #34, #58, #116 ) ;
#81 = DIRECTION ( 'NONE',  ( 1.000000000000000000, 0.000000000000000000, 0.000000000000000000 ) ) ;
#82 = CARTESIAN_POINT ( 'NONE',  ( 73.53299999999998704, 4.381499999999996398, 0.000000000000000000 ) ) ;
#83 = FACE_OUTER_BOUND ( 'NONE', #86, .T. ) ;
#84 = EDGE_CURVE ( 'NONE', #21, #21, #6, .T. ) ;
#85 = PRESENTATION_STYLE_ASSIGNMENT (( #144 ) ) ;
#86 = EDGE_LOOP ( 'NONE', ( #99 ) ) ;
#87 = AXIS2_PLACEMENT_3D ( 'NONE', #44, #79, #100 ) ;
#88 = DIRECTION ( 'NONE',  ( 2.861586040316789746E-17, 1.000000000000000000, 0.000000000000000000 ) ) ;
#89 = PRESENTATION_STYLE_ASSIGNMENT (( #102 ) ) ;
#90 = ORIENTED_EDGE ( 'NONE', *, *, #117, .T. ) ;
#91 = PLANE ( 'NONE',  #75 ) ;
#92 = APPLICATION_CONTEXT ( 'automotive_design' ) ;
#93 = FACE_OUTER_BOUND ( 'NONE', #160, .T. ) ;
#94 =( LENGTH_UNIT ( ) NAMED_UNIT ( * ) SI_UNIT ( .MILLI., .METRE. ) );
#95 = PRODUCT_DEFINITION_CONTEXT ( 'detailed design', #26, 'design' ) ;
#96 = CARTESIAN_POINT ( 'NONE',  ( 80.51799999999998647, 4.279899999999997817, 0.000000000000000000 ) ) ;
#97 = SURFACE_SIDE_STYLE ('',( #50 ) ) ;
#98 = ORIENTED_EDGE ( 'NONE', *, *, #78, .T. ) ;
#99 = ORIENTED_EDGE ( 'NONE', *, *, #84, .T. ) ;
#100 = DIRECTION ( 'NONE',  ( 0.000000000000000000, 1.000000000000000000, 0.000000000000000000 ) ) ;
#101 = CIRCLE ( 'NONE', #71, 4.940300000000001468 ) ;
#102 = SURFACE_STYLE_USAGE ( .BOTH. , #30 ) ;
#103 = DIRECTION ( 'NONE',  ( 1.000000000000000000, -2.861586040316789746E-17, -0.000000000000000000 ) ) ;
#104 = DIRECTION ( 'NONE',  ( 1.000000000000000000, -2.861586040316789746E-17, -0.000000000000000000 ) ) ;
#105 = CIRCLE ( 'NONE', #120, 4.279900000000000482 ) ;
#106 = VERTEX_POINT ( 'NONE', #130 ) ;
#107 = FILL_AREA_STYLE_COLOUR ( '', #25 ) ;
#108 = ADVANCED_BREP_SHAPE_REPRESENTATION ( '05-0413', ( #20, #119 ), #123 ) ;
#109 = ORIENTED_EDGE ( 'NONE', *, *, #40, .T. ) ;
#110 = ORIENTED_EDGE ( 'NONE', *, *, #40, .F. ) ;
#111 =( GEOMETRIC_REPRESENTATION_CONTEXT ( 3 ) GLOBAL_UNCERTAINTY_ASSIGNED_CONTEXT ( ( #69 ) ) GLOBAL_UNIT_ASSIGNED_CONTEXT ( ( #33, #11, #63 ) ) REPRESENTATION_CONTEXT ( 'NONE', 'WORKASPACE' ) );
#112 = AXIS2_PLACEMENT_3D ( 'NONE', #152, #48, #9 ) ;
#113 =( NAMED_UNIT ( * ) SI_UNIT ( $, .STERADIAN. ) SOLID_ANGLE_UNIT ( ) );
#114 = DIRECTION ( 'NONE',  ( 0.000000000000000000, 1.000000000000000000, 0.000000000000000000 ) ) ;
#115 = VERTEX_POINT ( 'NONE', #61 ) ;
#116 = DIRECTION ( 'NONE',  ( 0.000000000000000000, 1.000000000000000000, 0.000000000000000000 ) ) ;
#117 = EDGE_CURVE ( 'NONE', #142, #142, #101, .T. ) ;
#118 = CARTESIAN_POINT ( 'NONE',  ( 10.41400000000000681, -2.980055702385906294E-16, 0.000000000000000000 ) ) ;
#119 = AXIS2_PLACEMENT_3D ( 'NONE', #23, #138, #81 ) ;
#120 = AXIS2_PLACEMENT_3D ( 'NONE', #4, #149, #114 ) ;
#121 = ADVANCED_FACE ( 'NONE', ( #68 ), #41, .T. ) ;
#122 = CARTESIAN_POINT ( 'NONE',  ( 73.53299999999998704, -2.104210063026144899E-15, 0.000000000000000000 ) ) ;
#123 =( GEOMETRIC_REPRESENTATION_CONTEXT ( 3 ) GLOBAL_UNCERTAINTY_ASSIGNED_CONTEXT ( ( #132 ) ) GLOBAL_UNIT_ASSIGNED_CONTEXT ( ( #94, #24, #46 ) ) REPRESENTATION_CONTEXT ( 'NONE', 'WORKASPACE' ) );
#124 = CARTESIAN_POINT ( 'NONE',  ( 28.19399999999999551, -8.067955682069157348E-16, 0.000000000000000000 ) ) ;
#125 = EDGE_LOOP ( 'NONE', ( #90 ) ) ;
#126 = CONICAL_SURFACE ( 'NONE', #112, 4.279900000000000482, 0.01454442888050954709 ) ;
#127 = CARTESIAN_POINT ( 'NONE',  ( 73.53299999999998704, 4.940299999999998803, 0.000000000000000000 ) ) ;
#128 = PRODUCT_CONTEXT ( 'NONE', #92, 'mechanical' ) ;
#129 = CARTESIAN_POINT ( 'NONE',  ( 73.53299999999998704, -2.104210063026144899E-15, 0.000000000000000000 ) ) ;
#130 = CARTESIAN_POINT ( 'NONE',  ( 10.41400000000000681, 6.007099999999991446, 0.000000000000000000 ) ) ;
#131 = CARTESIAN_POINT ( 'NONE',  ( 10.41400000000000681, -2.980055702385906294E-16, 0.000000000000000000 ) ) ;
#132 = UNCERTAINTY_MEASURE_WITH_UNIT (LENGTH_MEASURE( 1.000000000000000082E-05 ), #94, 'distance_accuracy_value', 'NONE');
#133 = VERTEX_POINT ( 'NONE', #96 ) ;
#134 = MECHANICAL_DESIGN_GEOMETRIC_PRESENTATION_REPRESENTATION (  '', ( #59 ), #111 ) ;
#135 =( NAMED_UNIT ( * ) PLANE_ANGLE_UNIT ( ) SI_UNIT ( $, .RADIAN. ) );
#136 = FILL_AREA_STYLE ('',( #31 ) ) ;
#137 = FACE_OUTER_BOUND ( 'NONE', #51, .T. ) ;
#138 = DIRECTION ( 'NONE',  ( 0.000000000000000000, 0.000000000000000000, 1.000000000000000000 ) ) ;
#139 = AXIS2_PLACEMENT_3D ( 'NONE', #131, #5, #10 ) ;
#140 = APPLICATION_PROTOCOL_DEFINITION ( 'draft international standard', 'automotive_design', 1998, #92 ) ;
#141 = DIRECTION ( 'NONE',  ( 2.861586040316789746E-17, 1.000000000000000000, 0.000000000000000000 ) ) ;
#142 = VERTEX_POINT ( 'NONE', #7 ) ;
#143 = CLOSED_SHELL ( 'NONE', ( #159, #150, #65, #70, #1, #121 ) ) ;
#144 = SURFACE_STYLE_USAGE ( .BOTH. , #97 ) ;
#145 = ORIENTED_EDGE ( 'NONE', *, *, #117, .F. ) ;
#146 = PRESENTATION_LAYER_ASSIGNMENT (  '', '', ( #59 ) ) ;
#147 = AXIS2_PLACEMENT_3D ( 'NONE', #60, #103, #141 ) ;
#148 = PRODUCT_DEFINITION_SHAPE ( 'NONE', 'NONE',  #38 ) ;
#149 = DIRECTION ( 'NONE',  ( 1.000000000000000000, -2.861586040316789746E-17, -0.000000000000000000 ) ) ;
#150 = ADVANCED_FACE ( 'NONE', ( #83, #154 ), #126, .T. ) ;
#151 = FACE_BOUND ( 'NONE', #54, .T. ) ;
#152 = CARTESIAN_POINT ( 'NONE',  ( 80.51799999999998647, -2.304091847942272497E-15, 0.000000000000000000 ) ) ;
#153 = CIRCLE ( 'NONE', #87, 5.994399999999994400 ) ;
#154 = FACE_BOUND ( 'NONE', #18, .T. ) ;
#155 = DIRECTION ( 'NONE',  ( -1.000000000000000000, 2.861586040316789746E-17, 0.000000000000000000 ) ) ;
#156 = FILL_AREA_STYLE ('',( #107 ) ) ;
#157 =( GEOMETRIC_REPRESENTATION_CONTEXT ( 3 ) GLOBAL_UNCERTAINTY_ASSIGNED_CONTEXT ( ( #35 ) ) GLOBAL_UNIT_ASSIGNED_CONTEXT ( ( #15, #135, #113 ) ) REPRESENTATION_CONTEXT ( 'NONE', 'WORKASPACE' ) );
#158 = PRODUCT_RELATED_PRODUCT_CATEGORY ( 'part', '', ( #13 ) ) ;
#159 = ADVANCED_FACE ( 'NONE', ( #93 ), #67, .T. ) ;
#160 = EDGE_LOOP ( 'NONE', ( #76 ) ) ;
ENDSEC;
END-ISO-10303-21;
