ISO-10303-21;
HEADER;
FILE_DESCRIPTION (( 'STEP AP203' ),
    '1' );
FILE_NAME ('22-8749.STEP',
    '2023-11-09T18:20:20',
    ( '' ),
    ( '' ),
    'SwSTEP 2.0',
    'SolidWorks 2022',
    '' );
FILE_SCHEMA (( 'CONFIG_CONTROL_DESIGN' ));
ENDSEC;

DATA;
#1 = DIRECTION ( 'NONE',  ( 0.000000000000000000, 0.5000000000000037748, -0.8660254037844364872 ) ) ;
#2 = AXIS2_PLACEMENT_3D ( 'NONE', #159, #61, #209 ) ;
#3 = EDGE_LOOP ( 'NONE', ( #178, #83 ) ) ;
#4 = CARTESIAN_POINT ( 'NONE',  ( 0.000000000000000000, 1.249000902703303142E-17, -0.1000000000000001443 ) ) ;
#5 = VERTEX_POINT ( 'NONE', #179 ) ;
#6 = ADVANCED_FACE ( 'NONE', ( #199, #106 ), #28, .T. ) ;
#7 = DIRECTION ( 'NONE',  ( 0.000000000000000000, -1.000000000000000000, -1.249000902703301354E-16 ) ) ;
#8 = CARTESIAN_POINT ( 'NONE',  ( 0.000000000000000000, 1.249000902703303142E-17, -0.1000000000000001443 ) ) ;
#9 = CARTESIAN_POINT ( 'NONE',  ( 2.388061258337338397E-17, -0.1949999999999999789, -0.1000000000000001582 ) ) ;
#10 = LENGTH_MEASURE_WITH_UNIT ( LENGTH_MEASURE( 0.02539999999999999897 ), #50 );
#11 = CIRCLE ( 'NONE', #249, 0.1372649730810367452 ) ;
#12 = AXIS2_PLACEMENT_3D ( 'NONE', #107, #168, #126 ) ;
#13 = CYLINDRICAL_SURFACE ( 'NONE', #113, 0.09850000000000000422 ) ;
#14 = PRODUCT_DEFINITION_FORMATION_WITH_SPECIFIED_SOURCE ( 'ANY', '', #62, .NOT_KNOWN. ) ;
#15 = FACE_OUTER_BOUND ( 'NONE', #140, .T. ) ;
#16 = APPLICATION_CONTEXT ( 'configuration controlled 3d designs of mechanical parts and assemblies' ) ;
#17 = AXIS2_PLACEMENT_3D ( 'NONE', #103, #43, #69 ) ;
#18 = CC_DESIGN_PERSON_AND_ORGANIZATION_ASSIGNMENT ( #19, #175, ( #226 ) ) ;
#19 = PERSON_AND_ORGANIZATION ( #42, #170 ) ;
#20 = VECTOR ( 'NONE', #163, 39.37007874015748143 ) ;
#21 = PERSON_AND_ORGANIZATION ( #42, #170 ) ;
#22 = EDGE_CURVE ( 'NONE', #162, #144, #234, .T. ) ;
#23 = CALENDAR_DATE ( 2023, 9, 11 ) ;
#24 = CARTESIAN_POINT ( 'NONE',  ( 0.000000000000000000, 1.070669023987720306E-33, -8.572203764387962232E-18 ) ) ;
#25 = ORIENTED_EDGE ( 'NONE', *, *, #143, .F. ) ;
#26 = DIRECTION ( 'NONE',  ( 0.000000000000000000, 1.249000902703301354E-16, -1.000000000000000000 ) ) ;
#27 = ORIENTED_EDGE ( 'NONE', *, *, #174, .T. ) ;
#28 = PLANE ( 'NONE',  #127 ) ;
#29 = DIRECTION ( 'NONE',  ( 0.000000000000000000, 1.249000902703301354E-16, -1.000000000000000000 ) ) ;
#30 = DIRECTION ( 'NONE',  ( 0.000000000000000000, 1.249000902703301354E-16, -1.000000000000000000 ) ) ;
#31 = DIRECTION ( 'NONE',  ( 0.000000000000000000, 1.000000000000000000, 8.755923056616229402E-17 ) ) ;
#32 = DIRECTION ( 'NONE',  ( -0.000000000000000000, 1.249000902703301354E-16, -1.000000000000000000 ) ) ;
#33 = AXIS2_PLACEMENT_3D ( 'NONE', #49, #29, #104 ) ;
#34 = EDGE_CURVE ( 'NONE', #115, #63, #149, .T. ) ;
#35 = DATE_TIME_ROLE ( 'creation_date' ) ;
#36 = COORDINATED_UNIVERSAL_TIME_OFFSET ( 8, 0, .BEHIND. ) ;
#37 = PRODUCT_RELATED_PRODUCT_CATEGORY ( 'detail', '', ( #62 ) ) ;
#38 = EDGE_LOOP ( 'NONE', ( #169, #100 ) ) ;
#39 = DIRECTION ( 'NONE',  ( -0.000000000000000000, 1.249000902703301354E-16, -1.000000000000000000 ) ) ;
#40 = LOCAL_TIME ( 10, 20, 20.00000000000000000, #96 ) ;
#41 = ORIENTED_EDGE ( 'NONE', *, *, #78, .T. ) ;
#42 = PERSON ( 'UNSPECIFIED', 'UNSPECIFIED', 'UNSPECIFIED', ('UNSPECIFIED'), ('UNSPECIFIED'), ('UNSPECIFIED') ) ;
#43 = DIRECTION ( 'NONE',  ( -0.000000000000000000, 1.249000902703301354E-16, -1.000000000000000000 ) ) ;
#44 = ORIENTED_EDGE ( 'NONE', *, *, #206, .F. ) ;
#45 = LINE ( 'NONE', #195, #89 ) ;
#46 = VECTOR ( 'NONE', #1, 39.37007874015748854 ) ;
#47 = DIRECTION ( 'NONE',  ( -0.000000000000000000, 1.249000902703301354E-16, -1.000000000000000000 ) ) ;
#48 = EDGE_LOOP ( 'NONE', ( #41, #141, #44, #25 ) ) ;
#49 = CARTESIAN_POINT ( 'NONE',  ( 0.000000000000000000, -1.895600338963814870E-33, 1.707404996040164512E-17 ) ) ;
#50 =( LENGTH_UNIT ( ) NAMED_UNIT ( * ) SI_UNIT ( $, .METRE. ) );
#51 = EDGE_CURVE ( 'NONE', #118, #162, #139, .T. ) ;
#52 = CYLINDRICAL_SURFACE ( 'NONE', #12, 0.09850000000000000422 ) ;
#53 = EDGE_CURVE ( 'NONE', #196, #180, #129, .T. ) ;
#54 = CONICAL_SURFACE ( 'NONE', #192, 0.1949999999999999789, 0.5235987755983031455 ) ;
#55 = APPROVAL_DATE_TIME ( #76, #225 ) ;
#56 = PERSON_AND_ORGANIZATION_ROLE ( 'design_supplier' ) ;
#57 = ADVANCED_FACE ( 'NONE', ( #212 ), #54, .T. ) ;
#58 = COORDINATED_UNIVERSAL_TIME_OFFSET ( 8, 0, .BEHIND. ) ;
#59 = DATE_AND_TIME ( #79, #74 ) ;
#60 = DIRECTION ( 'NONE',  ( -0.000000000000000000, 1.249000902703301354E-16, -1.000000000000000000 ) ) ;
#61 = DIRECTION ( 'NONE',  ( -0.000000000000000000, 1.249000902703301354E-16, -1.000000000000000000 ) ) ;
#62 = PRODUCT ( '22-8749', '22-8749', '', ( #240 ) ) ;
#63 = VERTEX_POINT ( 'NONE', #242 ) ;
#64 = ORIENTED_EDGE ( 'NONE', *, *, #34, .F. ) ;
#65 = APPLICATION_PROTOCOL_DEFINITION ( 'international standard', 'config_control_design', 1994, #16 ) ;
#66 = ORIENTED_EDGE ( 'NONE', *, *, #95, .T. ) ;
#67 = DIRECTION ( 'NONE',  ( 0.000000000000000000, 1.000000000000000000, 1.249000902703301354E-16 ) ) ;
#68 = AXIS2_PLACEMENT_3D ( 'NONE', #177, #60, #136 ) ;
#69 = DIRECTION ( 'NONE',  ( 0.000000000000000000, 1.000000000000000000, 1.249000902703301354E-16 ) ) ;
#70 = EDGE_CURVE ( 'NONE', #63, #180, #88, .T. ) ;
#71 = DIRECTION ( 'NONE',  ( 0.000000000000000000, 1.249000902703301354E-16, -1.000000000000000000 ) ) ;
#72 = APPLICATION_CONTEXT ( 'configuration controlled 3d designs of mechanical parts and assemblies' ) ;
#73 =( GEOMETRIC_REPRESENTATION_CONTEXT ( 3 ) GLOBAL_UNCERTAINTY_ASSIGNED_CONTEXT ( ( #176 ) ) GLOBAL_UNIT_ASSIGNED_CONTEXT ( ( #221, #243, #86 ) ) REPRESENTATION_CONTEXT ( 'NONE', 'WORKASPACE' ) );
#74 = LOCAL_TIME ( 10, 20, 20.00000000000000000, #111 ) ;
#75 = PERSON_AND_ORGANIZATION_ROLE ( 'creator' ) ;
#76 = DATE_AND_TIME ( #230, #152 ) ;
#77 = CIRCLE ( 'NONE', #33, 0.09850000000000000422 ) ;
#78 = EDGE_CURVE ( 'NONE', #5, #118, #11, .T. ) ;
#79 = CALENDAR_DATE ( 2023, 9, 11 ) ;
#80 = DIRECTION ( 'NONE',  ( -0.000000000000000000, 1.249000902703301354E-16, -1.000000000000000000 ) ) ;
#81 = DIRECTION ( 'NONE',  ( 0.000000000000000000, 1.000000000000000000, 1.733406087350420744E-16 ) ) ;
#82 = EDGE_LOOP ( 'NONE', ( #91, #238, #124, #213 ) ) ;
#83 = ORIENTED_EDGE ( 'NONE', *, *, #34, .T. ) ;
#84 = ORIENTED_EDGE ( 'NONE', *, *, #53, .F. ) ;
#85 = CARTESIAN_POINT ( 'NONE',  ( 0.000000000000000000, 0.09850000000000000422, 2.937670885202916502E-17 ) ) ;
#86 =( NAMED_UNIT ( * ) SI_UNIT ( $, .STERADIAN. ) SOLID_ANGLE_UNIT ( ) );
#87 = EDGE_CURVE ( 'NONE', #118, #5, #97, .T. ) ;
#88 = LINE ( 'NONE', #85, #151 ) ;
#89 = VECTOR ( 'NONE', #80, 39.37007874015748143 ) ;
#90 = CC_DESIGN_APPROVAL ( #225, ( #14 ) ) ;
#91 = ORIENTED_EDGE ( 'NONE', *, *, #51, .F. ) ;
#92 = DIMENSIONAL_EXPONENTS ( 1.000000000000000000, 0.000000000000000000, 0.000000000000000000, 0.000000000000000000, 0.000000000000000000, 0.000000000000000000, 0.000000000000000000 ) ;
#93 = PRODUCT_DEFINITION ( 'UNKNOWN', '', #14, #233 ) ;
#94 = APPROVAL_ROLE ( '' ) ;
#95 = EDGE_CURVE ( 'NONE', #115, #196, #45, .T. ) ;
#96 = COORDINATED_UNIVERSAL_TIME_OFFSET ( 8, 0, .BEHIND. ) ;
#97 = CIRCLE ( 'NONE', #17, 0.1372649730810367452 ) ;
#98 = COORDINATED_UNIVERSAL_TIME_OFFSET ( 8, 0, .BEHIND. ) ;
#99 = FACE_OUTER_BOUND ( 'NONE', #38, .T. ) ;
#100 = ORIENTED_EDGE ( 'NONE', *, *, #22, .T. ) ;
#101 = ORIENTED_EDGE ( 'NONE', *, *, #70, .T. ) ;
#102 = ORIENTED_EDGE ( 'NONE', *, *, #53, .T. ) ;
#103 = CARTESIAN_POINT ( 'NONE',  ( 0.000000000000000000, 2.141338047975440613E-33, -1.714440752877592446E-17 ) ) ;
#104 = DIRECTION ( 'NONE',  ( 0.000000000000000000, 1.000000000000000000, 1.249000902703301354E-16 ) ) ;
#105 = CC_DESIGN_PERSON_AND_ORGANIZATION_ASSIGNMENT ( #220, #171, ( #62 ) ) ;
#106 = FACE_OUTER_BOUND ( 'NONE', #197, .T. ) ;
#107 = CARTESIAN_POINT ( 'NONE',  ( 0.000000000000000000, -1.895600338963814870E-33, 1.707404996040164512E-17 ) ) ;
#108 = DIRECTION ( 'NONE',  ( 1.000000000000000000, 0.000000000000000000, 0.000000000000000000 ) ) ;
#109 = LOCAL_TIME ( 10, 20, 20.00000000000000000, #36 ) ;
#110 = CARTESIAN_POINT ( 'NONE',  ( 0.000000000000000000, 1.249000902703303142E-17, -0.1000000000000001443 ) ) ;
#111 = COORDINATED_UNIVERSAL_TIME_OFFSET ( 8, 0, .BEHIND. ) ;
#112 = DATE_AND_TIME ( #133, #109 ) ;
#113 = AXIS2_PLACEMENT_3D ( 'NONE', #125, #187, #244 ) ;
#114 = PERSON_AND_ORGANIZATION ( #42, #170 ) ;
#115 = VERTEX_POINT ( 'NONE', #161 ) ;
#116 = CC_DESIGN_APPROVAL ( #167, ( #226 ) ) ;
#117 = LINE ( 'NONE', #193, #46 ) ;
#118 = VERTEX_POINT ( 'NONE', #218 ) ;
#119 = DIRECTION ( 'NONE',  ( 0.000000000000000000, 1.000000000000000000, 1.249000902703301354E-16 ) ) ;
#120 = ORIENTED_EDGE ( 'NONE', *, *, #87, .F. ) ;
#121 = DIRECTION ( 'NONE',  ( 0.000000000000000000, -1.249000902703301354E-16, 1.000000000000000000 ) ) ;
#122 = CARTESIAN_POINT ( 'NONE',  ( 0.000000000000000000, 1.249000902703303142E-17, -0.1000000000000001443 ) ) ;
#123 = ADVANCED_FACE ( 'NONE', ( #232, #99 ), #239, .T. ) ;
#124 = ORIENTED_EDGE ( 'NONE', *, *, #143, .T. ) ;
#125 = CARTESIAN_POINT ( 'NONE',  ( 0.000000000000000000, -1.895600338963814870E-33, 1.707404996040164512E-17 ) ) ;
#126 = DIRECTION ( 'NONE',  ( 0.000000000000000000, 1.000000000000000000, 1.249000902703301354E-16 ) ) ;
#127 = AXIS2_PLACEMENT_3D ( 'NONE', #24, #121, #7 ) ;
#128 = CC_DESIGN_DATE_AND_TIME_ASSIGNMENT ( #153, #35, ( #93 ) ) ;
#129 = CIRCLE ( 'NONE', #165, 0.09850000000000000422 ) ;
#130 = PERSON_AND_ORGANIZATION_ROLE ( 'creator' ) ;
#131 = ADVANCED_BREP_SHAPE_REPRESENTATION ( '22-8749', ( #150, #245 ), #73 ) ;
#132 = PERSON_AND_ORGANIZATION ( #42, #170 ) ;
#133 = CALENDAR_DATE ( 2023, 9, 11 ) ;
#134 = APPROVAL ( #203, 'UNSPECIFIED' ) ;
#135 = PRODUCT_DEFINITION_SHAPE ( 'NONE', 'NONE',  #93 ) ;
#136 = DIRECTION ( 'NONE',  ( 0.000000000000000000, 1.000000000000000000, 1.249000902703301354E-16 ) ) ;
#137 = APPROVAL_PERSON_ORGANIZATION ( #114, #134, #246 ) ;
#138 = LOCAL_TIME ( 10, 20, 20.00000000000000000, #58 ) ;
#139 = LINE ( 'NONE', #9, #20 ) ;
#140 = EDGE_LOOP ( 'NONE', ( #64, #66, #102, #160 ) ) ;
#141 = ORIENTED_EDGE ( 'NONE', *, *, #51, .T. ) ;
#142 = FACE_OUTER_BOUND ( 'NONE', #236, .T. ) ;
#143 = EDGE_CURVE ( 'NONE', #5, #144, #117, .T. ) ;
#144 = VERTEX_POINT ( 'NONE', #184 ) ;
#145 = CONICAL_SURFACE ( 'NONE', #185, 0.1949999999999999789, 0.5235987755983031455 ) ;
#146 = CARTESIAN_POINT ( 'NONE',  ( 0.000000000000000000, 1.249000902703303142E-17, -0.1000000000000001443 ) ) ;
#147 = CARTESIAN_POINT ( 'NONE',  ( 2.388061258337338397E-17, -0.1949999999999999789, -0.1000000000000001582 ) ) ;
#148 = DIRECTION ( 'NONE',  ( 0.000000000000000000, 0.000000000000000000, 1.000000000000000000 ) ) ;
#149 = CIRCLE ( 'NONE', #204, 0.09850000000000000422 ) ;
#150 = MANIFOLD_SOLID_BREP ( 'Extrude1', #223 ) ;
#151 = VECTOR ( 'NONE', #214, 39.37007874015748143 ) ;
#152 = LOCAL_TIME ( 10, 20, 20.00000000000000000, #98 ) ;
#153 = DATE_AND_TIME ( #190, #138 ) ;
#154 = PERSON_AND_ORGANIZATION ( #42, #170 ) ;
#155 = AXIS2_PLACEMENT_3D ( 'NONE', #122, #71, #198 ) ;
#156 = PERSON_AND_ORGANIZATION ( #42, #170 ) ;
#157 = CC_DESIGN_PERSON_AND_ORGANIZATION_ASSIGNMENT ( #156, #75, ( #93 ) ) ;
#158 = ORIENTED_EDGE ( 'NONE', *, *, #95, .F. ) ;
#159 = CARTESIAN_POINT ( 'NONE',  ( 0.000000000000000000, 1.249000902703303142E-17, -0.1000000000000001443 ) ) ;
#160 = ORIENTED_EDGE ( 'NONE', *, *, #70, .F. ) ;
#161 = CARTESIAN_POINT ( 'NONE',  ( 1.206277097160143165E-17, -0.09850000000000000422, 4.771391068774125979E-18 ) ) ;
#162 = VERTEX_POINT ( 'NONE', #147 ) ;
#163 = DIRECTION ( 'NONE',  ( 6.123233995736810409E-17, -0.5000000000000035527, -0.8660254037844365982 ) ) ;
#164 = CARTESIAN_POINT ( 'NONE',  ( 0.000000000000000000, 0.000000000000000000, 0.000000000000000000 ) ) ;
#165 = AXIS2_PLACEMENT_3D ( 'NONE', #146, #26, #81 ) ;
#166 = DIRECTION ( 'NONE',  ( 0.000000000000000000, 1.000000000000000000, 8.755923056616229402E-17 ) ) ;
#167 = APPROVAL ( #172, 'UNSPECIFIED' ) ;
#168 = DIRECTION ( 'NONE',  ( -0.000000000000000000, 1.249000902703301354E-16, -1.000000000000000000 ) ) ;
#169 = ORIENTED_EDGE ( 'NONE', *, *, #206, .T. ) ;
#170 = ORGANIZATION ( 'UNSPECIFIED', 'UNSPECIFIED', '' ) ;
#171 = PERSON_AND_ORGANIZATION_ROLE ( 'design_owner' ) ;
#172 = APPROVAL_STATUS ( 'not_yet_approved' ) ;
#173 = CIRCLE ( 'NONE', #155, 0.09850000000000000422 ) ;
#174 = EDGE_CURVE ( 'NONE', #180, #196, #173, .T. ) ;
#175 = PERSON_AND_ORGANIZATION_ROLE ( 'classification_officer' ) ;
#176 = UNCERTAINTY_MEASURE_WITH_UNIT (LENGTH_MEASURE( 1.000000000000000082E-05 ), #221, 'distance_accuracy_value', 'NONE');
#177 = CARTESIAN_POINT ( 'NONE',  ( 0.000000000000000000, 0.1949999999999999789, -0.1000000000000001305 ) ) ;
#178 = ORIENTED_EDGE ( 'NONE', *, *, #219, .T. ) ;
#179 = CARTESIAN_POINT ( 'NONE',  ( 0.000000000000000000, 0.1372649730810367452, 0.000000000000000000 ) ) ;
#180 = VERTEX_POINT ( 'NONE', #215 ) ;
#181 = CARTESIAN_POINT ( 'NONE',  ( 0.000000000000000000, 2.141338047975440613E-33, -1.714440752877592446E-17 ) ) ;
#182 = CC_DESIGN_PERSON_AND_ORGANIZATION_ASSIGNMENT ( #132, #130, ( #14 ) ) ;
#183 = ORIENTED_EDGE ( 'NONE', *, *, #174, .F. ) ;
#184 = CARTESIAN_POINT ( 'NONE',  ( 0.000000000000000000, 0.1949999999999999789, -0.1000000000000001305 ) ) ;
#185 = AXIS2_PLACEMENT_3D ( 'NONE', #110, #47, #31 ) ;
#186 = APPROVAL_PERSON_ORGANIZATION ( #231, #167, #94 ) ;
#187 = DIRECTION ( 'NONE',  ( -0.000000000000000000, 1.249000902703301354E-16, -1.000000000000000000 ) ) ;
#188 = ADVANCED_FACE ( 'NONE', ( #142 ), #13, .F. ) ;
#189 = AXIS2_PLACEMENT_3D ( 'NONE', #8, #32, #200 ) ;
#190 = CALENDAR_DATE ( 2023, 9, 11 ) ;
#191 = APPROVAL_STATUS ( 'not_yet_approved' ) ;
#192 = AXIS2_PLACEMENT_3D ( 'NONE', #4, #39, #166 ) ;
#193 = CARTESIAN_POINT ( 'NONE',  ( 0.000000000000000000, 0.1949999999999999789, -0.1000000000000001305 ) ) ;
#194 = ORIENTED_EDGE ( 'NONE', *, *, #78, .F. ) ;
#195 = CARTESIAN_POINT ( 'NONE',  ( 1.206277097160143011E-17, -0.09850000000000000422, 4.771391068774125979E-18 ) ) ;
#196 = VERTEX_POINT ( 'NONE', #224 ) ;
#197 = EDGE_LOOP ( 'NONE', ( #194, #120 ) ) ;
#198 = DIRECTION ( 'NONE',  ( 0.000000000000000000, 1.000000000000000000, 1.733406087350420744E-16 ) ) ;
#199 = FACE_BOUND ( 'NONE', #3, .T. ) ;
#200 = DIRECTION ( 'NONE',  ( 0.000000000000000000, 1.000000000000000000, 8.755923056616229402E-17 ) ) ;
#201 = CC_DESIGN_PERSON_AND_ORGANIZATION_ASSIGNMENT ( #154, #56, ( #14 ) ) ;
#202 = CC_DESIGN_DATE_AND_TIME_ASSIGNMENT ( #248, #205, ( #226 ) ) ;
#203 = APPROVAL_STATUS ( 'not_yet_approved' ) ;
#204 = AXIS2_PLACEMENT_3D ( 'NONE', #237, #30, #67 ) ;
#205 = DATE_TIME_ROLE ( 'classification_date' ) ;
#206 = EDGE_CURVE ( 'NONE', #144, #162, #241, .T. ) ;
#207 = APPLICATION_PROTOCOL_DEFINITION ( 'international standard', 'config_control_design', 1994, #72 ) ;
#208 = APPROVAL_ROLE ( '' ) ;
#209 = DIRECTION ( 'NONE',  ( 0.000000000000000000, 1.000000000000000000, 8.755923056616229402E-17 ) ) ;
#210 = CC_DESIGN_SECURITY_CLASSIFICATION ( #226, ( #14 ) ) ;
#211 = ORIENTED_EDGE ( 'NONE', *, *, #219, .F. ) ;
#212 = FACE_OUTER_BOUND ( 'NONE', #48, .T. ) ;
#213 = ORIENTED_EDGE ( 'NONE', *, *, #22, .F. ) ;
#214 = DIRECTION ( 'NONE',  ( -0.000000000000000000, 1.249000902703301354E-16, -1.000000000000000000 ) ) ;
#215 = CARTESIAN_POINT ( 'NONE',  ( 0.000000000000000000, 0.09850000000000001810, -0.1000000000000001305 ) ) ;
#216 = CC_DESIGN_APPROVAL ( #134, ( #93 ) ) ;
#217 = EDGE_LOOP ( 'NONE', ( #183, #84 ) ) ;
#218 = CARTESIAN_POINT ( 'NONE',  ( 2.034536178762365255E-17, -0.1372649730810367452, -3.428881505755185509E-17 ) ) ;
#219 = EDGE_CURVE ( 'NONE', #63, #115, #77, .T. ) ;
#220 = PERSON_AND_ORGANIZATION ( #42, #170 ) ;
#221 =( CONVERSION_BASED_UNIT ( 'INCH', #10 ) LENGTH_UNIT ( ) NAMED_UNIT ( #92 ) );
#222 = FACE_OUTER_BOUND ( 'NONE', #82, .T. ) ;
#223 = CLOSED_SHELL ( 'NONE', ( #252, #57, #6, #229, #123, #188 ) ) ;
#224 = CARTESIAN_POINT ( 'NONE',  ( 1.206277097160143011E-17, -0.09849999999999999034, -0.1000000000000001582 ) ) ;
#225 = APPROVAL ( #191, 'UNSPECIFIED' ) ;
#226 = SECURITY_CLASSIFICATION ( '', '', #228 ) ;
#227 = APPROVAL_DATE_TIME ( #59, #167 ) ;
#228 = SECURITY_CLASSIFICATION_LEVEL ( 'unclassified' ) ;
#229 = ADVANCED_FACE ( 'NONE', ( #222 ), #145, .T. ) ;
#230 = CALENDAR_DATE ( 2023, 9, 11 ) ;
#231 = PERSON_AND_ORGANIZATION ( #42, #170 ) ;
#232 = FACE_BOUND ( 'NONE', #217, .T. ) ;
#233 = DESIGN_CONTEXT ( 'detailed design', #72, 'design' ) ;
#234 = CIRCLE ( 'NONE', #2, 0.1949999999999999789 ) ;
#235 = DIRECTION ( 'NONE',  ( -0.000000000000000000, 1.249000902703301354E-16, -1.000000000000000000 ) ) ;
#236 = EDGE_LOOP ( 'NONE', ( #158, #211, #101, #27 ) ) ;
#237 = CARTESIAN_POINT ( 'NONE',  ( 0.000000000000000000, -1.895600338963814870E-33, 1.707404996040164512E-17 ) ) ;
#238 = ORIENTED_EDGE ( 'NONE', *, *, #87, .T. ) ;
#239 = PLANE ( 'NONE',  #68 ) ;
#240 = MECHANICAL_CONTEXT ( 'NONE', #16, 'mechanical' ) ;
#241 = CIRCLE ( 'NONE', #189, 0.1949999999999999789 ) ;
#242 = CARTESIAN_POINT ( 'NONE',  ( 0.000000000000000000, 0.09850000000000000422, 2.937670885202916502E-17 ) ) ;
#243 =( NAMED_UNIT ( * ) PLANE_ANGLE_UNIT ( ) SI_UNIT ( $, .RADIAN. ) );
#244 = DIRECTION ( 'NONE',  ( 0.000000000000000000, 1.000000000000000000, 1.249000902703301354E-16 ) ) ;
#245 = AXIS2_PLACEMENT_3D ( 'NONE', #164, #148, #108 ) ;
#246 = APPROVAL_ROLE ( '' ) ;
#247 = APPROVAL_PERSON_ORGANIZATION ( #21, #225, #208 ) ;
#248 = DATE_AND_TIME ( #23, #40 ) ;
#249 = AXIS2_PLACEMENT_3D ( 'NONE', #181, #235, #119 ) ;
#250 = SHAPE_DEFINITION_REPRESENTATION ( #135, #131 ) ;
#251 = APPROVAL_DATE_TIME ( #112, #134 ) ;
#252 = ADVANCED_FACE ( 'NONE', ( #15 ), #52, .F. ) ;
ENDSEC;
END-ISO-10303-21;
