ISO-10303-21;
HEADER;
FILE_DESCRIPTION (( 'STEP AP203' ),
    '1' );
FILE_NAME ('06-0188.STEP',
    '2023-11-09T18:29:32',
    ( '' ),
    ( '' ),
    'SwSTEP 2.0',
    'SolidWorks 2022',
    '' );
FILE_SCHEMA (( 'CONFIG_CONTROL_DESIGN' ));
ENDSEC;

DATA;
#1 = VECTOR ( 'NONE', #186, 39.37007874015748143 ) ;
#2 = APPROVAL_PERSON_ORGANIZATION ( #56, #87, #252 ) ;
#3 = CALENDAR_DATE ( 2023, 9, 11 ) ;
#4 = EDGE_CURVE ( 'NONE', #7, #42, #121, .T. ) ;
#5 = CC_DESIGN_PERSON_AND_ORGANIZATION_ASSIGNMENT ( #169, #167, ( #226 ) ) ;
#6 = DIRECTION ( 'NONE',  ( 0.000000000000000000, -1.000000000000000000, 0.000000000000000000 ) ) ;
#7 = VERTEX_POINT ( 'NONE', #152 ) ;
#8 = CARTESIAN_POINT ( 'NONE',  ( 0.000000000000000000, 0.4624999999999999112, 0.000000000000000000 ) ) ;
#9 = CARTESIAN_POINT ( 'NONE',  ( 1.151167991198512239E-17, 0.4624999999999999112, 0.09400000000000001410 ) ) ;
#10 = AXIS2_PLACEMENT_3D ( 'NONE', #52, #185, #13 ) ;
#11 = VERTEX_POINT ( 'NONE', #44 ) ;
#12 = CARTESIAN_POINT ( 'NONE',  ( -0.1226019983523922857, 0.4624999999999999112, 1.501441448513263036E-17 ) ) ;
#13 = DIRECTION ( 'NONE',  ( 0.000000000000000000, 0.000000000000000000, -1.000000000000000000 ) ) ;
#14 = CARTESIAN_POINT ( 'NONE',  ( 0.1226019983523922580, 0.03249999999999999417, 0.000000000000000000 ) ) ;
#15 = CC_DESIGN_SECURITY_CLASSIFICATION ( #226, ( #55 ) ) ;
#16 = ADVANCED_FACE ( 'NONE', ( #222 ), #43, .T. ) ;
#17 = CYLINDRICAL_SURFACE ( 'NONE', #168, 0.09400000000000001410 ) ;
#18 = DIRECTION ( 'NONE',  ( 0.000000000000000000, 0.000000000000000000, -1.000000000000000000 ) ) ;
#19 = CALENDAR_DATE ( 2023, 9, 11 ) ;
#20 = DIRECTION ( 'NONE',  ( 0.000000000000000000, 0.000000000000000000, 1.000000000000000000 ) ) ;
#21 = APPROVAL_ROLE ( '' ) ;
#22 = AXIS2_PLACEMENT_3D ( 'NONE', #180, #202, #97 ) ;
#23 = APPROVAL_STATUS ( 'not_yet_approved' ) ;
#24 = CC_DESIGN_PERSON_AND_ORGANIZATION_ASSIGNMENT ( #194, #216, ( #71 ) ) ;
#25 = ORIENTED_EDGE ( 'NONE', *, *, #99, .T. ) ;
#26 = ORIENTED_EDGE ( 'NONE', *, *, #125, .F. ) ;
#27 = EDGE_LOOP ( 'NONE', ( #78, #241 ) ) ;
#28 = ORIENTED_EDGE ( 'NONE', *, *, #251, .F. ) ;
#29 = EDGE_LOOP ( 'NONE', ( #134, #201, #46, #135 ) ) ;
#30 = LINE ( 'NONE', #85, #1 ) ;
#31 = APPROVAL ( #23, 'UNSPECIFIED' ) ;
#32 =( LENGTH_UNIT ( ) NAMED_UNIT ( * ) SI_UNIT ( $, .METRE. ) );
#33 = LINE ( 'NONE', #105, #157 ) ;
#34 = DIRECTION ( 'NONE',  ( 0.000000000000000000, 0.000000000000000000, -1.000000000000000000 ) ) ;
#35 = DIRECTION ( 'NONE',  ( 0.000000000000000000, -1.000000000000000000, 0.000000000000000000 ) ) ;
#36 = DATE_AND_TIME ( #19, #74 ) ;
#37 = DATE_TIME_ROLE ( 'creation_date' ) ;
#38 =( NAMED_UNIT ( * ) SI_UNIT ( $, .STERADIAN. ) SOLID_ANGLE_UNIT ( ) );
#39 = EDGE_CURVE ( 'NONE', #11, #100, #133, .T. ) ;
#40 = APPROVAL_ROLE ( '' ) ;
#41 = AXIS2_PLACEMENT_3D ( 'NONE', #246, #161, #247 ) ;
#42 = VERTEX_POINT ( 'NONE', #9 ) ;
#43 = SPHERICAL_SURFACE ( 'NONE', #22, 0.2474999999999999978 ) ;
#44 = CARTESIAN_POINT ( 'NONE',  ( 0.1226019983523922857, 0.4624999999999999112, 0.000000000000000000 ) ) ;
#45 = ORIENTED_EDGE ( 'NONE', *, *, #99, .F. ) ;
#46 = ORIENTED_EDGE ( 'NONE', *, *, #158, .T. ) ;
#47 = EDGE_CURVE ( 'NONE', #100, #82, #225, .T. ) ;
#48 = CC_DESIGN_PERSON_AND_ORGANIZATION_ASSIGNMENT ( #109, #73, ( #55 ) ) ;
#49 = CARTESIAN_POINT ( 'NONE',  ( 0.000000000000000000, 0.4624999999999999112, 0.000000000000000000 ) ) ;
#50 = DIRECTION ( 'NONE',  ( -0.000000000000000000, -1.000000000000000000, -0.000000000000000000 ) ) ;
#51 = DIRECTION ( 'NONE',  ( 0.000000000000000000, 1.000000000000000000, 0.000000000000000000 ) ) ;
#52 = CARTESIAN_POINT ( 'NONE',  ( 0.000000000000000000, 0.03249999999999999417, 0.000000000000000000 ) ) ;
#53 = CIRCLE ( 'NONE', #197, 0.1226019983523922857 ) ;
#54 = COORDINATED_UNIVERSAL_TIME_OFFSET ( 8, 0, .BEHIND. ) ;
#55 = PRODUCT_DEFINITION_FORMATION_WITH_SPECIFIED_SOURCE ( 'ANY', '', #71, .NOT_KNOWN. ) ;
#56 = PERSON_AND_ORGANIZATION ( #166, #198 ) ;
#57 = ADVANCED_FACE ( 'NONE', ( #244 ), #17, .F. ) ;
#58 = PERSON_AND_ORGANIZATION ( #166, #198 ) ;
#59 = VERTEX_POINT ( 'NONE', #68 ) ;
#60 = DIRECTION ( 'NONE',  ( 0.000000000000000000, 0.000000000000000000, -1.000000000000000000 ) ) ;
#61 = EDGE_LOOP ( 'NONE', ( #26, #28 ) ) ;
#62 = CC_DESIGN_APPROVAL ( #87, ( #55 ) ) ;
#63 = EDGE_CURVE ( 'NONE', #101, #11, #89, .T. ) ;
#64 = CC_DESIGN_DATE_AND_TIME_ASSIGNMENT ( #151, #37, ( #206 ) ) ;
#65 = DIRECTION ( 'NONE',  ( 0.000000000000000000, 0.000000000000000000, 1.000000000000000000 ) ) ;
#66 =( GEOMETRIC_REPRESENTATION_CONTEXT ( 3 ) GLOBAL_UNCERTAINTY_ASSIGNED_CONTEXT ( ( #177 ) ) GLOBAL_UNIT_ASSIGNED_CONTEXT ( ( #170, #146, #38 ) ) REPRESENTATION_CONTEXT ( 'NONE', 'WORKASPACE' ) );
#67 = CARTESIAN_POINT ( 'NONE',  ( 0.000000000000000000, 0.03249999999999999417, -0.09400000000000001410 ) ) ;
#68 = CARTESIAN_POINT ( 'NONE',  ( 1.151167991198512239E-17, 0.03249999999999999417, 0.09400000000000001410 ) ) ;
#69 = CARTESIAN_POINT ( 'NONE',  ( 0.000000000000000000, 0.4624999999999999112, 0.000000000000000000 ) ) ;
#70 = DATE_AND_TIME ( #3, #118 ) ;
#71 = PRODUCT ( '06-0188', '06-0188', '', ( #91 ) ) ;
#72 = APPROVAL_STATUS ( 'not_yet_approved' ) ;
#73 = PERSON_AND_ORGANIZATION_ROLE ( 'creator' ) ;
#74 = LOCAL_TIME ( 10, 29, 32.00000000000000000, #54 ) ;
#75 = PERSON_AND_ORGANIZATION_ROLE ( 'creator' ) ;
#76 = AXIS2_PLACEMENT_3D ( 'NONE', #8, #6, #60 ) ;
#77 = ORIENTED_EDGE ( 'NONE', *, *, #251, .T. ) ;
#78 = ORIENTED_EDGE ( 'NONE', *, *, #213, .F. ) ;
#79 = ADVANCED_FACE ( 'NONE', ( #190, #86 ), #122, .T. ) ;
#80 = CARTESIAN_POINT ( 'NONE',  ( 0.000000000000000000, 0.03249999999999999417, 0.000000000000000000 ) ) ;
#81 = APPROVAL ( #196, 'UNSPECIFIED' ) ;
#82 = VERTEX_POINT ( 'NONE', #127 ) ;
#83 = CARTESIAN_POINT ( 'NONE',  ( 0.000000000000000000, 0.4624999999999999112, 0.000000000000000000 ) ) ;
#84 = DIRECTION ( 'NONE',  ( 0.000000000000000000, 0.000000000000000000, -1.000000000000000000 ) ) ;
#85 = CARTESIAN_POINT ( 'NONE',  ( 1.151167991198512239E-17, 0.4624999999999999112, 0.09400000000000001410 ) ) ;
#86 = FACE_OUTER_BOUND ( 'NONE', #154, .T. ) ;
#87 = APPROVAL ( #72, 'UNSPECIFIED' ) ;
#88 = APPLICATION_PROTOCOL_DEFINITION ( 'international standard', 'config_control_design', 1994, #136 ) ;
#89 = CIRCLE ( 'NONE', #174, 0.1226019983523922857 ) ;
#90 = APPROVAL_PERSON_ORGANIZATION ( #219, #81, #21 ) ;
#91 = MECHANICAL_CONTEXT ( 'NONE', #136, 'mechanical' ) ;
#92 = CARTESIAN_POINT ( 'NONE',  ( 0.000000000000000000, 0.000000000000000000, 0.000000000000000000 ) ) ;
#93 = COORDINATED_UNIVERSAL_TIME_OFFSET ( 8, 0, .BEHIND. ) ;
#94 = ORIENTED_EDGE ( 'NONE', *, *, #4, .T. ) ;
#95 = EDGE_LOOP ( 'NONE', ( #45, #178, #77, #155 ) ) ;
#96 = AXIS2_PLACEMENT_3D ( 'NONE', #80, #156, #138 ) ;
#97 = DIRECTION ( 'NONE',  ( 1.000000000000000000, 0.000000000000000000, 0.000000000000000000 ) ) ;
#98 = DIMENSIONAL_EXPONENTS ( 1.000000000000000000, 0.000000000000000000, 0.000000000000000000, 0.000000000000000000, 0.000000000000000000, 0.000000000000000000, 0.000000000000000000 ) ;
#99 = EDGE_CURVE ( 'NONE', #42, #7, #188, .T. ) ;
#100 = VERTEX_POINT ( 'NONE', #14 ) ;
#101 = VERTEX_POINT ( 'NONE', #12 ) ;
#102 = AXIS2_PLACEMENT_3D ( 'NONE', #92, #20, #147 ) ;
#103 = SPHERICAL_SURFACE ( 'NONE', #111, 0.2474999999999999978 ) ;
#104 = CARTESIAN_POINT ( 'NONE',  ( 0.000000000000000000, 0.03249999999999999417, 0.000000000000000000 ) ) ;
#105 = CARTESIAN_POINT ( 'NONE',  ( 0.000000000000000000, 0.4624999999999999112, -0.09400000000000001410 ) ) ;
#106 = PLANE ( 'NONE',  #253 ) ;
#107 = ADVANCED_FACE ( 'NONE', ( #250, #124 ), #106, .T. ) ;
#108 = DIRECTION ( 'NONE',  ( 0.000000000000000000, 0.000000000000000000, -1.000000000000000000 ) ) ;
#109 = PERSON_AND_ORGANIZATION ( #166, #198 ) ;
#110 = CALENDAR_DATE ( 2023, 9, 11 ) ;
#111 = AXIS2_PLACEMENT_3D ( 'NONE', #141, #65, #233 ) ;
#112 = CALENDAR_DATE ( 2023, 9, 11 ) ;
#113 = PERSON_AND_ORGANIZATION ( #166, #198 ) ;
#114 = CC_DESIGN_APPROVAL ( #31, ( #206 ) ) ;
#115 = MANIFOLD_SOLID_BREP ( 'Cut-Extrude1', #126 ) ;
#116 = ORIENTED_EDGE ( 'NONE', *, *, #47, .F. ) ;
#117 = CARTESIAN_POINT ( 'NONE',  ( 0.000000000000000000, 0.2474999999999999978, 0.000000000000000000 ) ) ;
#118 = LOCAL_TIME ( 10, 29, 32.00000000000000000, #93 ) ;
#119 = ORIENTED_EDGE ( 'NONE', *, *, #63, .T. ) ;
#120 = CARTESIAN_POINT ( 'NONE',  ( 0.000000000000000000, 0.4624999999999999112, 0.000000000000000000 ) ) ;
#121 = CIRCLE ( 'NONE', #76, 0.09400000000000001410 ) ;
#122 = PLANE ( 'NONE',  #217 ) ;
#123 = DIRECTION ( 'NONE',  ( 0.000000000000000000, -1.000000000000000000, 0.000000000000000000 ) ) ;
#124 = FACE_OUTER_BOUND ( 'NONE', #27, .T. ) ;
#125 = EDGE_CURVE ( 'NONE', #204, #59, #220, .T. ) ;
#126 = CLOSED_SHELL ( 'NONE', ( #57, #205, #107, #79, #16, #235 ) ) ;
#127 = CARTESIAN_POINT ( 'NONE',  ( -0.1226019983523922580, 0.03249999999999999417, 1.501441448513263036E-17 ) ) ;
#128 = CALENDAR_DATE ( 2023, 9, 11 ) ;
#129 = COORDINATED_UNIVERSAL_TIME_OFFSET ( 8, 0, .BEHIND. ) ;
#130 = DATE_TIME_ROLE ( 'classification_date' ) ;
#131 = APPROVAL_DATE_TIME ( #70, #81 ) ;
#132 = ORIENTED_EDGE ( 'NONE', *, *, #213, .T. ) ;
#133 = CIRCLE ( 'NONE', #150, 0.2474999999999999978 ) ;
#134 = ORIENTED_EDGE ( 'NONE', *, *, #173, .F. ) ;
#135 = ORIENTED_EDGE ( 'NONE', *, *, #125, .T. ) ;
#136 = APPLICATION_CONTEXT ( 'configuration controlled 3d designs of mechanical parts and assemblies' ) ;
#137 = DIRECTION ( 'NONE',  ( 0.000000000000000000, 0.000000000000000000, -1.000000000000000000 ) ) ;
#138 = DIRECTION ( 'NONE',  ( 0.000000000000000000, 0.000000000000000000, -1.000000000000000000 ) ) ;
#139 = ADVANCED_BREP_SHAPE_REPRESENTATION ( '06-0188', ( #115, #102 ), #66 ) ;
#140 = DIRECTION ( 'NONE',  ( 0.000000000000000000, 0.000000000000000000, -1.000000000000000000 ) ) ;
#141 = CARTESIAN_POINT ( 'NONE',  ( 0.000000000000000000, 0.2474999999999999978, 0.000000000000000000 ) ) ;
#142 = DIRECTION ( 'NONE',  ( 0.000000000000000000, 0.000000000000000000, -1.000000000000000000 ) ) ;
#143 = DIRECTION ( 'NONE',  ( 0.000000000000000000, 0.000000000000000000, -1.000000000000000000 ) ) ;
#144 = DIRECTION ( 'NONE',  ( 0.000000000000000000, 0.000000000000000000, -1.000000000000000000 ) ) ;
#145 = CIRCLE ( 'NONE', #41, 0.2474999999999999978 ) ;
#146 =( NAMED_UNIT ( * ) PLANE_ANGLE_UNIT ( ) SI_UNIT ( $, .RADIAN. ) );
#147 = DIRECTION ( 'NONE',  ( 1.000000000000000000, 0.000000000000000000, 0.000000000000000000 ) ) ;
#148 = APPLICATION_CONTEXT ( 'configuration controlled 3d designs of mechanical parts and assemblies' ) ;
#149 = APPLICATION_PROTOCOL_DEFINITION ( 'international standard', 'config_control_design', 1994, #148 ) ;
#150 = AXIS2_PLACEMENT_3D ( 'NONE', #117, #137, #224 ) ;
#151 = DATE_AND_TIME ( #128, #163 ) ;
#152 = CARTESIAN_POINT ( 'NONE',  ( 0.000000000000000000, 0.4624999999999999112, -0.09400000000000001410 ) ) ;
#153 = AXIS2_PLACEMENT_3D ( 'NONE', #211, #35, #143 ) ;
#154 = EDGE_LOOP ( 'NONE', ( #242, #179 ) ) ;
#155 = ORIENTED_EDGE ( 'NONE', *, *, #158, .F. ) ;
#156 = DIRECTION ( 'NONE',  ( -0.000000000000000000, -1.000000000000000000, -0.000000000000000000 ) ) ;
#157 = VECTOR ( 'NONE', #189, 39.37007874015748143 ) ;
#158 = EDGE_CURVE ( 'NONE', #7, #204, #33, .T. ) ;
#159 = PRODUCT_RELATED_PRODUCT_CATEGORY ( 'detail', '', ( #71 ) ) ;
#160 = DIRECTION ( 'NONE',  ( -0.000000000000000000, -1.000000000000000000, -0.000000000000000000 ) ) ;
#161 = DIRECTION ( 'NONE',  ( 1.224646799147353207E-16, -0.000000000000000000, 1.000000000000000000 ) ) ;
#162 = CIRCLE ( 'NONE', #153, 0.09400000000000001410 ) ;
#163 = LOCAL_TIME ( 10, 29, 32.00000000000000000, #236 ) ;
#164 = CYLINDRICAL_SURFACE ( 'NONE', #193, 0.09400000000000001410 ) ;
#165 = FACE_OUTER_BOUND ( 'NONE', #223, .T. ) ;
#166 = PERSON ( 'UNSPECIFIED', 'UNSPECIFIED', 'UNSPECIFIED', ('UNSPECIFIED'), ('UNSPECIFIED'), ('UNSPECIFIED') ) ;
#167 = PERSON_AND_ORGANIZATION_ROLE ( 'classification_officer' ) ;
#168 = AXIS2_PLACEMENT_3D ( 'NONE', #120, #50, #142 ) ;
#169 = PERSON_AND_ORGANIZATION ( #166, #198 ) ;
#170 =( CONVERSION_BASED_UNIT ( 'INCH', #214 ) LENGTH_UNIT ( ) NAMED_UNIT ( #98 ) );
#171 = APPROVAL_DATE_TIME ( #36, #87 ) ;
#172 = PERSON_AND_ORGANIZATION ( #166, #198 ) ;
#173 = EDGE_CURVE ( 'NONE', #42, #59, #30, .T. ) ;
#174 = AXIS2_PLACEMENT_3D ( 'NONE', #210, #187, #18 ) ;
#175 = SHAPE_DEFINITION_REPRESENTATION ( #212, #139 ) ;
#176 = EDGE_LOOP ( 'NONE', ( #207, #119, #221, #228 ) ) ;
#177 = UNCERTAINTY_MEASURE_WITH_UNIT (LENGTH_MEASURE( 1.000000000000000082E-05 ), #170, 'distance_accuracy_value', 'NONE');
#178 = ORIENTED_EDGE ( 'NONE', *, *, #173, .T. ) ;
#179 = ORIENTED_EDGE ( 'NONE', *, *, #181, .T. ) ;
#180 = CARTESIAN_POINT ( 'NONE',  ( 0.000000000000000000, 0.2474999999999999978, 0.000000000000000000 ) ) ;
#181 = EDGE_CURVE ( 'NONE', #82, #100, #184, .T. ) ;
#182 = EDGE_LOOP ( 'NONE', ( #94, #25 ) ) ;
#183 = CC_DESIGN_PERSON_AND_ORGANIZATION_ASSIGNMENT ( #172, #75, ( #206 ) ) ;
#184 = CIRCLE ( 'NONE', #10, 0.1226019983523922580 ) ;
#185 = DIRECTION ( 'NONE',  ( -0.000000000000000000, -1.000000000000000000, -0.000000000000000000 ) ) ;
#186 = DIRECTION ( 'NONE',  ( -0.000000000000000000, -1.000000000000000000, -0.000000000000000000 ) ) ;
#187 = DIRECTION ( 'NONE',  ( -0.000000000000000000, -1.000000000000000000, -0.000000000000000000 ) ) ;
#188 = CIRCLE ( 'NONE', #234, 0.09400000000000001410 ) ;
#189 = DIRECTION ( 'NONE',  ( -0.000000000000000000, -1.000000000000000000, -0.000000000000000000 ) ) ;
#190 = FACE_BOUND ( 'NONE', #61, .T. ) ;
#191 = SECURITY_CLASSIFICATION_LEVEL ( 'unclassified' ) ;
#192 = CC_DESIGN_PERSON_AND_ORGANIZATION_ASSIGNMENT ( #113, #254, ( #55 ) ) ;
#193 = AXIS2_PLACEMENT_3D ( 'NONE', #69, #249, #144 ) ;
#194 = PERSON_AND_ORGANIZATION ( #166, #198 ) ;
#195 = COORDINATED_UNIVERSAL_TIME_OFFSET ( 8, 0, .BEHIND. ) ;
#196 = APPROVAL_STATUS ( 'not_yet_approved' ) ;
#197 = AXIS2_PLACEMENT_3D ( 'NONE', #83, #160, #84 ) ;
#198 = ORGANIZATION ( 'UNSPECIFIED', 'UNSPECIFIED', '' ) ;
#199 = DESIGN_CONTEXT ( 'detailed design', #148, 'design' ) ;
#200 = ORIENTED_EDGE ( 'NONE', *, *, #227, .T. ) ;
#201 = ORIENTED_EDGE ( 'NONE', *, *, #4, .F. ) ;
#202 = DIRECTION ( 'NONE',  ( 0.000000000000000000, 0.000000000000000000, 1.000000000000000000 ) ) ;
#203 = LOCAL_TIME ( 10, 29, 32.00000000000000000, #129 ) ;
#204 = VERTEX_POINT ( 'NONE', #67 ) ;
#205 = ADVANCED_FACE ( 'NONE', ( #165 ), #103, .T. ) ;
#206 = PRODUCT_DEFINITION ( 'UNKNOWN', '', #55, #199 ) ;
#207 = ORIENTED_EDGE ( 'NONE', *, *, #227, .F. ) ;
#208 = DIRECTION ( 'NONE',  ( 0.000000000000000000, -0.000000000000000000, 1.000000000000000000 ) ) ;
#209 = FACE_OUTER_BOUND ( 'NONE', #29, .T. ) ;
#210 = CARTESIAN_POINT ( 'NONE',  ( 0.000000000000000000, 0.4624999999999999112, 0.000000000000000000 ) ) ;
#211 = CARTESIAN_POINT ( 'NONE',  ( 0.000000000000000000, 0.03249999999999999417, 0.000000000000000000 ) ) ;
#212 = PRODUCT_DEFINITION_SHAPE ( 'NONE', 'NONE',  #206 ) ;
#213 = EDGE_CURVE ( 'NONE', #11, #101, #53, .T. ) ;
#214 = LENGTH_MEASURE_WITH_UNIT ( LENGTH_MEASURE( 0.02539999999999999897 ), #32 );
#215 = CC_DESIGN_DATE_AND_TIME_ASSIGNMENT ( #237, #130, ( #226 ) ) ;
#216 = PERSON_AND_ORGANIZATION_ROLE ( 'design_owner' ) ;
#217 = AXIS2_PLACEMENT_3D ( 'NONE', #230, #232, #140 ) ;
#218 = LOCAL_TIME ( 10, 29, 32.00000000000000000, #195 ) ;
#219 = PERSON_AND_ORGANIZATION ( #166, #198 ) ;
#220 = CIRCLE ( 'NONE', #231, 0.09400000000000001410 ) ;
#221 = ORIENTED_EDGE ( 'NONE', *, *, #39, .T. ) ;
#222 = FACE_OUTER_BOUND ( 'NONE', #176, .T. ) ;
#223 = EDGE_LOOP ( 'NONE', ( #132, #200, #116, #243 ) ) ;
#224 = DIRECTION ( 'NONE',  ( -1.000000000000000000, 0.000000000000000000, 0.000000000000000000 ) ) ;
#225 = CIRCLE ( 'NONE', #96, 0.1226019983523922580 ) ;
#226 = SECURITY_CLASSIFICATION ( '', '', #191 ) ;
#227 = EDGE_CURVE ( 'NONE', #101, #82, #145, .T. ) ;
#228 = ORIENTED_EDGE ( 'NONE', *, *, #181, .F. ) ;
#229 = CARTESIAN_POINT ( 'NONE',  ( 0.000000000000000000, 0.4624999999999999112, 0.000000000000000000 ) ) ;
#230 = CARTESIAN_POINT ( 'NONE',  ( 0.000000000000000000, 0.03249999999999999417, 0.000000000000000000 ) ) ;
#231 = AXIS2_PLACEMENT_3D ( 'NONE', #104, #123, #108 ) ;
#232 = DIRECTION ( 'NONE',  ( 0.000000000000000000, -1.000000000000000000, -0.000000000000000000 ) ) ;
#233 = DIRECTION ( 'NONE',  ( 1.000000000000000000, 0.000000000000000000, 0.000000000000000000 ) ) ;
#234 = AXIS2_PLACEMENT_3D ( 'NONE', #229, #245, #34 ) ;
#235 = ADVANCED_FACE ( 'NONE', ( #209 ), #164, .F. ) ;
#236 = COORDINATED_UNIVERSAL_TIME_OFFSET ( 8, 0, .BEHIND. ) ;
#237 = DATE_AND_TIME ( #110, #203 ) ;
#238 = APPROVAL_DATE_TIME ( #239, #31 ) ;
#239 = DATE_AND_TIME ( #112, #218 ) ;
#240 = CC_DESIGN_APPROVAL ( #81, ( #226 ) ) ;
#241 = ORIENTED_EDGE ( 'NONE', *, *, #63, .F. ) ;
#242 = ORIENTED_EDGE ( 'NONE', *, *, #47, .T. ) ;
#243 = ORIENTED_EDGE ( 'NONE', *, *, #39, .F. ) ;
#244 = FACE_OUTER_BOUND ( 'NONE', #95, .T. ) ;
#245 = DIRECTION ( 'NONE',  ( 0.000000000000000000, -1.000000000000000000, 0.000000000000000000 ) ) ;
#246 = CARTESIAN_POINT ( 'NONE',  ( 0.000000000000000000, 0.2474999999999999978, 0.000000000000000000 ) ) ;
#247 = DIRECTION ( 'NONE',  ( 1.000000000000000000, 0.000000000000000000, -1.224646799147353207E-16 ) ) ;
#248 = APPROVAL_PERSON_ORGANIZATION ( #58, #31, #40 ) ;
#249 = DIRECTION ( 'NONE',  ( -0.000000000000000000, -1.000000000000000000, -0.000000000000000000 ) ) ;
#250 = FACE_BOUND ( 'NONE', #182, .T. ) ;
#251 = EDGE_CURVE ( 'NONE', #59, #204, #162, .T. ) ;
#252 = APPROVAL_ROLE ( '' ) ;
#253 = AXIS2_PLACEMENT_3D ( 'NONE', #49, #51, #208 ) ;
#254 = PERSON_AND_ORGANIZATION_ROLE ( 'design_supplier' ) ;
ENDSEC;
END-ISO-10303-21;
