ISO-10303-21;
HEADER;
FILE_DESCRIPTION (( 'STEP AP203' ),
    '1' );
FILE_NAME ('06-0190.STEP',
    '2024-02-22T18:47:59',
    ( '' ),
    ( '' ),
    'SwSTEP 2.0',
    'SolidWorks 2022',
    '' );
FILE_SCHEMA (( 'CONFIG_CONTROL_DESIGN' ));
ENDSEC;

DATA;
#1 = CIRCLE ( 'NONE', #177, 0.05149999999999998329 ) ;
#2 = CARTESIAN_POINT ( 'NONE',  ( 3.414809992080329023E-17, -6.306931015608867378E-18, 0.1494999999999999662 ) ) ;
#3 = FACE_OUTER_BOUND ( 'NONE', #121, .T. ) ;
#4 = CARTESIAN_POINT ( 'NONE',  ( 3.414809992080329023E-17, 0.000000000000000000, 0.000000000000000000 ) ) ;
#5 = DIRECTION ( 'NONE',  ( 1.224646799147353947E-16, 0.000000000000000000, -1.000000000000000000 ) ) ;
#6 = LENGTH_MEASURE_WITH_UNIT ( LENGTH_MEASURE( 0.02539999999999999897 ), #142 );
#7 = ADVANCED_FACE ( 'Face1', ( #49 ), #186, .T. ) ;
#8 = PERSON ( 'UNSPECIFIED', 'UNSPECIFIED', 'UNSPECIFIED', ('UNSPECIFIED'), ('UNSPECIFIED'), ('UNSPECIFIED') ) ;
#9 = DATE_TIME_ROLE ( 'creation_date' ) ;
#10 = APPLICATION_PROTOCOL_DEFINITION ( 'international standard', 'config_control_design', 1994, #47 ) ;
#11 = DATE_TIME_ROLE ( 'classification_date' ) ;
#12 = MANIFOLD_SOLID_BREP ( 'Face1', #43 ) ;
#13 = ORIENTED_EDGE ( 'NONE', *, *, #76, .F. ) ;
#14 = ORGANIZATION ( 'UNSPECIFIED', 'UNSPECIFIED', '' ) ;
#15 = VERTEX_POINT ( 'NONE', #138 ) ;
#16 = LOCAL_TIME ( 10, 47, 59.00000000000000000, #151 ) ;
#17 = SHAPE_DEFINITION_REPRESENTATION ( #154, #75 ) ;
#18 = DIRECTION ( 'NONE',  ( 1.000000000000000000, 0.000000000000000000, 1.224646799147353207E-16 ) ) ;
#19 = TOROIDAL_SURFACE ( 'NONE', #37, 0.2009999999999999565, 0.05149999999999998329 ) ;
#20 = DIRECTION ( 'NONE',  ( -0.000000000000000000, 1.000000000000000000, -0.000000000000000000 ) ) ;
#21 = LOCAL_TIME ( 10, 47, 59.00000000000000000, #130 ) ;
#22 = UNCERTAINTY_MEASURE_WITH_UNIT (LENGTH_MEASURE( 1.000000000000000082E-05 ), #99, 'distance_accuracy_value', 'NONE');
#23 = CARTESIAN_POINT ( 'NONE',  ( 5.876350058366508449E-17, 0.000000000000000000, -0.2009999999999999565 ) ) ;
#24 = APPROVAL_STATUS ( 'not_yet_approved' ) ;
#25 = APPROVAL_STATUS ( 'not_yet_approved' ) ;
#26 = CARTESIAN_POINT ( 'NONE',  ( 0.000000000000000000, 0.000000000000000000, 0.000000000000000000 ) ) ;
#27 = PERSON_AND_ORGANIZATION ( #8, #14 ) ;
#28 = APPROVAL_DATE_TIME ( #41, #124 ) ;
#29 = PRODUCT_DEFINITION ( 'UNKNOWN', '', #109, #50 ) ;
#30 = TOROIDAL_SURFACE ( 'NONE', #70, 0.2009999999999999565, 0.05149999999999998329 ) ;
#31 = CALENDAR_DATE ( 2024, 22, 2 ) ;
#32 = ORIENTED_EDGE ( 'NONE', *, *, #140, .F. ) ;
#33 = EDGE_LOOP ( 'NONE', ( #165, #93, #194, #180 ) ) ;
#34 = ORIENTED_EDGE ( 'NONE', *, *, #185, .T. ) ;
#35 = AXIS2_PLACEMENT_3D ( 'NONE', #90, #94, #158 ) ;
#36 = DIRECTION ( 'NONE',  ( 0.000000000000000000, 0.000000000000000000, 1.000000000000000000 ) ) ;
#37 = AXIS2_PLACEMENT_3D ( 'NONE', #110, #170, #95 ) ;
#38 = PERSON_AND_ORGANIZATION ( #8, #14 ) ;
#39 = DATE_AND_TIME ( #173, #126 ) ;
#40 = AXIS2_PLACEMENT_3D ( 'NONE', #65, #152, #168 ) ;
#41 = DATE_AND_TIME ( #118, #96 ) ;
#42 = ADVANCED_FACE ( 'Face1', ( #3 ), #19, .T. ) ;
#43 = CLOSED_SHELL ( 'NONE', ( #105, #7, #42, #54 ) ) ;
#44 = VERTEX_POINT ( 'NONE', #107 ) ;
#45 = VERTEX_POINT ( 'NONE', #135 ) ;
#46 = DIRECTION ( 'NONE',  ( -1.000000000000000000, 0.000000000000000000, 0.000000000000000000 ) ) ;
#47 = APPLICATION_CONTEXT ( 'configuration controlled 3d designs of mechanical parts and assemblies' ) ;
#48 = DIRECTION ( 'NONE',  ( 0.000000000000000000, 0.000000000000000000, 1.000000000000000000 ) ) ;
#49 = FACE_OUTER_BOUND ( 'NONE', #33, .T. ) ;
#50 = DESIGN_CONTEXT ( 'detailed design', #47, 'design' ) ;
#51 = DIRECTION ( 'NONE',  ( -0.000000000000000000, 1.000000000000000000, -0.000000000000000000 ) ) ;
#52 =( NAMED_UNIT ( * ) PLANE_ANGLE_UNIT ( ) SI_UNIT ( $, .RADIAN. ) );
#53 = PERSON_AND_ORGANIZATION ( #8, #14 ) ;
#54 = ADVANCED_FACE ( 'Face1', ( #178 ), #122, .T. ) ;
#55 = APPROVAL_DATE_TIME ( #39, #136 ) ;
#56 = ORIENTED_EDGE ( 'NONE', *, *, #175, .F. ) ;
#57 = DATE_AND_TIME ( #31, #16 ) ;
#58 = AXIS2_PLACEMENT_3D ( 'NONE', #156, #20, #139 ) ;
#59 = ORIENTED_EDGE ( 'NONE', *, *, #185, .F. ) ;
#60 = CARTESIAN_POINT ( 'NONE',  ( 3.414809992080329023E-17, 0.000000000000000000, 0.000000000000000000 ) ) ;
#61 = CARTESIAN_POINT ( 'NONE',  ( 3.414809992080329023E-17, 0.000000000000000000, 0.000000000000000000 ) ) ;
#62 = CARTESIAN_POINT ( 'NONE',  ( 3.414809992080329023E-17, -6.306931015608867378E-18, 0.000000000000000000 ) ) ;
#63 = EDGE_LOOP ( 'NONE', ( #92, #120, #150, #13 ) ) ;
#64 = DIRECTION ( 'NONE',  ( -0.000000000000000000, 1.000000000000000000, -0.000000000000000000 ) ) ;
#65 = CARTESIAN_POINT ( 'NONE',  ( 3.414809992080329023E-17, 0.000000000000000000, 0.000000000000000000 ) ) ;
#66 = CIRCLE ( 'NONE', #104, 0.05149999999999998329 ) ;
#67 = DIRECTION ( 'NONE',  ( 1.000000000000000000, 0.000000000000000000, 0.000000000000000000 ) ) ;
#68 = COORDINATED_UNIVERSAL_TIME_OFFSET ( 8, 0, .BEHIND. ) ;
#69 = APPROVAL_ROLE ( '' ) ;
#70 = AXIS2_PLACEMENT_3D ( 'NONE', #60, #164, #36 ) ;
#71 = CC_DESIGN_APPROVAL ( #124, ( #109 ) ) ;
#72 = VERTEX_POINT ( 'NONE', #2 ) ;
#73 = EDGE_CURVE ( 'NONE', #45, #15, #137, .T. ) ;
#74 = APPROVAL_PERSON_ORGANIZATION ( #53, #136, #69 ) ;
#75 = ADVANCED_BREP_SHAPE_REPRESENTATION ( '06-0190', ( #12, #169 ), #145 ) ;
#76 = EDGE_CURVE ( 'NONE', #44, #72, #172, .T. ) ;
#77 = DIRECTION ( 'NONE',  ( -0.000000000000000000, 1.000000000000000000, -0.000000000000000000 ) ) ;
#78 = AXIS2_PLACEMENT_3D ( 'NONE', #195, #51, #166 ) ;
#79 = ORIENTED_EDGE ( 'NONE', *, *, #76, .T. ) ;
#80 = DIRECTION ( 'NONE',  ( 1.000000000000000000, 0.000000000000000000, 1.224646799147353207E-16 ) ) ;
#81 = PERSON_AND_ORGANIZATION ( #8, #14 ) ;
#82 = MECHANICAL_CONTEXT ( 'NONE', #191, 'mechanical' ) ;
#83 = COORDINATED_UNIVERSAL_TIME_OFFSET ( 8, 0, .BEHIND. ) ;
#84 = SECURITY_CLASSIFICATION_LEVEL ( 'unclassified' ) ;
#85 = CC_DESIGN_APPROVAL ( #136, ( #29 ) ) ;
#86 = CALENDAR_DATE ( 2024, 22, 2 ) ;
#87 = AXIS2_PLACEMENT_3D ( 'NONE', #62, #77, #181 ) ;
#88 = CC_DESIGN_DATE_AND_TIME_ASSIGNMENT ( #187, #11, ( #193 ) ) ;
#89 = CIRCLE ( 'NONE', #58, 0.1494999999999999662 ) ;
#90 = CARTESIAN_POINT ( 'NONE',  ( 3.414809992080329023E-17, 0.000000000000000000, 0.2009999999999999565 ) ) ;
#91 = APPROVAL_DATE_TIME ( #57, #101 ) ;
#92 = ORIENTED_EDGE ( 'NONE', *, *, #98, .F. ) ;
#93 = ORIENTED_EDGE ( 'NONE', *, *, #175, .T. ) ;
#94 = DIRECTION ( 'NONE',  ( -1.000000000000000000, 0.000000000000000000, 0.000000000000000000 ) ) ;
#95 = DIRECTION ( 'NONE',  ( 0.000000000000000000, 0.000000000000000000, 1.000000000000000000 ) ) ;
#96 = LOCAL_TIME ( 10, 47, 59.00000000000000000, #117 ) ;
#97 = DIRECTION ( 'NONE',  ( 0.000000000000000000, 0.000000000000000000, 1.000000000000000000 ) ) ;
#98 = EDGE_CURVE ( 'NONE', #45, #44, #129, .T. ) ;
#99 =( CONVERSION_BASED_UNIT ( 'INCH', #6 ) LENGTH_UNIT ( ) NAMED_UNIT ( #143 ) );
#100 = PERSON_AND_ORGANIZATION ( #8, #14 ) ;
#101 = APPROVAL ( #132, 'UNSPECIFIED' ) ;
#102 = PERSON_AND_ORGANIZATION_ROLE ( 'creator' ) ;
#103 = APPLICATION_PROTOCOL_DEFINITION ( 'international standard', 'config_control_design', 1994, #191 ) ;
#104 = AXIS2_PLACEMENT_3D ( 'NONE', #23, #80, #5 ) ;
#105 = ADVANCED_FACE ( 'Face1', ( #113 ), #30, .T. ) ;
#106 = CC_DESIGN_APPROVAL ( #101, ( #193 ) ) ;
#107 = CARTESIAN_POINT ( 'NONE',  ( 5.245656956805621095E-17, -6.306931015608867378E-18, -0.1494999999999999662 ) ) ;
#108 = CARTESIAN_POINT ( 'NONE',  ( 5.876350058366508449E-17, 0.000000000000000000, -0.2009999999999999565 ) ) ;
#109 = PRODUCT_DEFINITION_FORMATION_WITH_SPECIFIED_SOURCE ( 'ANY', '', #112, .NOT_KNOWN. ) ;
#110 = CARTESIAN_POINT ( 'NONE',  ( 3.414809992080329023E-17, 0.000000000000000000, 0.000000000000000000 ) ) ;
#111 = EDGE_CURVE ( 'NONE', #15, #72, #1, .T. ) ;
#112 = PRODUCT ( '06-0190', '06-0190', '', ( #82 ) ) ;
#113 = FACE_OUTER_BOUND ( 'NONE', #63, .T. ) ;
#114 =( NAMED_UNIT ( * ) SI_UNIT ( $, .STERADIAN. ) SOLID_ANGLE_UNIT ( ) );
#115 = CC_DESIGN_PERSON_AND_ORGANIZATION_ASSIGNMENT ( #100, #163, ( #112 ) ) ;
#116 = AXIS2_PLACEMENT_3D ( 'NONE', #61, #123, #48 ) ;
#117 = COORDINATED_UNIVERSAL_TIME_OFFSET ( 8, 0, .BEHIND. ) ;
#118 = CALENDAR_DATE ( 2024, 22, 2 ) ;
#119 = ORIENTED_EDGE ( 'NONE', *, *, #167, .T. ) ;
#120 = ORIENTED_EDGE ( 'NONE', *, *, #73, .T. ) ;
#121 = EDGE_LOOP ( 'NONE', ( #56, #32, #119, #34 ) ) ;
#122 = TOROIDAL_SURFACE ( 'NONE', #78, 0.2009999999999999565, 0.05149999999999998329 ) ;
#123 = DIRECTION ( 'NONE',  ( -0.000000000000000000, 1.000000000000000000, -0.000000000000000000 ) ) ;
#124 = APPROVAL ( #24, 'UNSPECIFIED' ) ;
#125 = DIRECTION ( 'NONE',  ( 0.000000000000000000, 0.000000000000000000, 1.000000000000000000 ) ) ;
#126 = LOCAL_TIME ( 10, 47, 59.00000000000000000, #68 ) ;
#127 = DIRECTION ( 'NONE',  ( 0.000000000000000000, 0.000000000000000000, 1.000000000000000000 ) ) ;
#128 = PERSON_AND_ORGANIZATION ( #8, #14 ) ;
#129 = CIRCLE ( 'NONE', #157, 0.05149999999999998329 ) ;
#130 = COORDINATED_UNIVERSAL_TIME_OFFSET ( 8, 0, .BEHIND. ) ;
#131 = CC_DESIGN_SECURITY_CLASSIFICATION ( #193, ( #109 ) ) ;
#132 = APPROVAL_STATUS ( 'not_yet_approved' ) ;
#133 = CC_DESIGN_PERSON_AND_ORGANIZATION_ASSIGNMENT ( #128, #161, ( #29 ) ) ;
#134 = AXIS2_PLACEMENT_3D ( 'NONE', #4, #64, #125 ) ;
#135 = CARTESIAN_POINT ( 'NONE',  ( 6.507043159927395803E-17, 0.000000000000000000, -0.2524999999999999467 ) ) ;
#136 = APPROVAL ( #25, 'UNSPECIFIED' ) ;
#137 = CIRCLE ( 'NONE', #40, 0.2524999999999999467 ) ;
#138 = CARTESIAN_POINT ( 'NONE',  ( 3.414809992080329023E-17, 0.000000000000000000, 0.2524999999999999467 ) ) ;
#139 = DIRECTION ( 'NONE',  ( 0.000000000000000000, 0.000000000000000000, 1.000000000000000000 ) ) ;
#140 = EDGE_CURVE ( 'NONE', #72, #15, #148, .T. ) ;
#141 = PERSON_AND_ORGANIZATION ( #8, #14 ) ;
#142 =( LENGTH_UNIT ( ) NAMED_UNIT ( * ) SI_UNIT ( $, .METRE. ) );
#143 = DIMENSIONAL_EXPONENTS ( 1.000000000000000000, 0.000000000000000000, 0.000000000000000000, 0.000000000000000000, 0.000000000000000000, 0.000000000000000000, 0.000000000000000000 ) ;
#144 = DATE_AND_TIME ( #184, #192 ) ;
#145 =( GEOMETRIC_REPRESENTATION_CONTEXT ( 3 ) GLOBAL_UNCERTAINTY_ASSIGNED_CONTEXT ( ( #22 ) ) GLOBAL_UNIT_ASSIGNED_CONTEXT ( ( #99, #52, #114 ) ) REPRESENTATION_CONTEXT ( 'NONE', 'WORKASPACE' ) );
#146 = PERSON_AND_ORGANIZATION_ROLE ( 'classification_officer' ) ;
#147 = APPROVAL_ROLE ( '' ) ;
#148 = CIRCLE ( 'NONE', #35, 0.05149999999999998329 ) ;
#149 = CC_DESIGN_PERSON_AND_ORGANIZATION_ASSIGNMENT ( #159, #102, ( #109 ) ) ;
#150 = ORIENTED_EDGE ( 'NONE', *, *, #111, .T. ) ;
#151 = COORDINATED_UNIVERSAL_TIME_OFFSET ( 8, 0, .BEHIND. ) ;
#152 = DIRECTION ( 'NONE',  ( -0.000000000000000000, 1.000000000000000000, -0.000000000000000000 ) ) ;
#153 = PRODUCT_RELATED_PRODUCT_CATEGORY ( 'detail', '', ( #112 ) ) ;
#154 = PRODUCT_DEFINITION_SHAPE ( 'NONE', 'NONE',  #29 ) ;
#155 = ORIENTED_EDGE ( 'NONE', *, *, #140, .T. ) ;
#156 = CARTESIAN_POINT ( 'NONE',  ( 3.414809992080329023E-17, -6.306931015608867378E-18, 0.000000000000000000 ) ) ;
#157 = AXIS2_PLACEMENT_3D ( 'NONE', #108, #18, #196 ) ;
#158 = DIRECTION ( 'NONE',  ( 0.000000000000000000, 0.000000000000000000, 1.000000000000000000 ) ) ;
#159 = PERSON_AND_ORGANIZATION ( #8, #14 ) ;
#160 = CC_DESIGN_DATE_AND_TIME_ASSIGNMENT ( #144, #9, ( #29 ) ) ;
#161 = PERSON_AND_ORGANIZATION_ROLE ( 'creator' ) ;
#162 = PERSON_AND_ORGANIZATION_ROLE ( 'design_supplier' ) ;
#163 = PERSON_AND_ORGANIZATION_ROLE ( 'design_owner' ) ;
#164 = DIRECTION ( 'NONE',  ( -0.000000000000000000, 1.000000000000000000, -0.000000000000000000 ) ) ;
#165 = ORIENTED_EDGE ( 'NONE', *, *, #111, .F. ) ;
#166 = DIRECTION ( 'NONE',  ( 0.000000000000000000, 0.000000000000000000, 1.000000000000000000 ) ) ;
#167 = EDGE_CURVE ( 'NONE', #72, #44, #89, .T. ) ;
#168 = DIRECTION ( 'NONE',  ( 0.000000000000000000, 0.000000000000000000, 1.000000000000000000 ) ) ;
#169 = AXIS2_PLACEMENT_3D ( 'NONE', #26, #127, #67 ) ;
#170 = DIRECTION ( 'NONE',  ( -0.000000000000000000, 1.000000000000000000, -0.000000000000000000 ) ) ;
#171 = APPROVAL_PERSON_ORGANIZATION ( #141, #101, #188 ) ;
#172 = CIRCLE ( 'NONE', #87, 0.1494999999999999662 ) ;
#173 = CALENDAR_DATE ( 2024, 22, 2 ) ;
#174 = APPROVAL_PERSON_ORGANIZATION ( #27, #124, #147 ) ;
#175 = EDGE_CURVE ( 'NONE', #15, #45, #176, .T. ) ;
#176 = CIRCLE ( 'NONE', #134, 0.2524999999999999467 ) ;
#177 = AXIS2_PLACEMENT_3D ( 'NONE', #179, #46, #97 ) ;
#178 = FACE_OUTER_BOUND ( 'NONE', #182, .T. ) ;
#179 = CARTESIAN_POINT ( 'NONE',  ( 3.414809992080329023E-17, 0.000000000000000000, 0.2009999999999999565 ) ) ;
#180 = ORIENTED_EDGE ( 'NONE', *, *, #167, .F. ) ;
#181 = DIRECTION ( 'NONE',  ( 0.000000000000000000, 0.000000000000000000, 1.000000000000000000 ) ) ;
#182 = EDGE_LOOP ( 'NONE', ( #189, #59, #79, #155 ) ) ;
#183 = CC_DESIGN_PERSON_AND_ORGANIZATION_ASSIGNMENT ( #38, #146, ( #193 ) ) ;
#184 = CALENDAR_DATE ( 2024, 22, 2 ) ;
#185 = EDGE_CURVE ( 'NONE', #44, #45, #66, .T. ) ;
#186 = TOROIDAL_SURFACE ( 'NONE', #116, 0.2009999999999999565, 0.05149999999999998329 ) ;
#187 = DATE_AND_TIME ( #86, #21 ) ;
#188 = APPROVAL_ROLE ( '' ) ;
#189 = ORIENTED_EDGE ( 'NONE', *, *, #73, .F. ) ;
#190 = CC_DESIGN_PERSON_AND_ORGANIZATION_ASSIGNMENT ( #81, #162, ( #109 ) ) ;
#191 = APPLICATION_CONTEXT ( 'configuration controlled 3d designs of mechanical parts and assemblies' ) ;
#192 = LOCAL_TIME ( 10, 47, 59.00000000000000000, #83 ) ;
#193 = SECURITY_CLASSIFICATION ( '', '', #84 ) ;
#194 = ORIENTED_EDGE ( 'NONE', *, *, #98, .T. ) ;
#195 = CARTESIAN_POINT ( 'NONE',  ( 3.414809992080329023E-17, 0.000000000000000000, 0.000000000000000000 ) ) ;
#196 = DIRECTION ( 'NONE',  ( 1.224646799147353947E-16, 0.000000000000000000, -1.000000000000000000 ) ) ;
ENDSEC;
END-ISO-10303-21;
