ISO-10303-21;
HEADER;
/* Generated by software containing ST-Developer
 * from STEP Tools, Inc. (www.steptools.com) 
 */

FILE_DESCRIPTION(
/* description */ (''),
/* implementation_level */ '2;1');

FILE_NAME(
/* name */ '06-0533 O-Ring 7 x 2 v1.step',
/* time_stamp */ '2024-11-27T09:47:01-08:00',
/* author */ (''),
/* organization */ (''),
/* preprocessor_version */ 'ST-DEVELOPER v20',
/* originating_system */ 'Autodesk Translation Framework v13.20.0.188',

/* authorisation */ '');

FILE_SCHEMA (('AUTOMOTIVE_DESIGN { 1 0 10303 214 3 1 1 }'));
ENDSEC;

DATA;
#10=MECHANICAL_DESIGN_GEOMETRIC_PRESENTATION_REPRESENTATION('',(#13),#61);
#11=SHAPE_REPRESENTATION_RELATIONSHIP('SRR','None',#68,#12);
#12=ADVANCED_BREP_SHAPE_REPRESENTATION('',(#14),#60);
#13=STYLED_ITEM('',(#77),#14);
#14=MANIFOLD_SOLID_BREP('Body1',#28);
#15=FACE_OUTER_BOUND('',#16,.T.);
#16=EDGE_LOOP('',(#22,#23,#24,#25));
#17=CIRCLE('',#43,1.);
#18=CIRCLE('',#44,3.5);
#19=VERTEX_POINT('',#55);
#20=EDGE_CURVE('',#19,#19,#17,.T.);
#21=EDGE_CURVE('',#19,#19,#18,.T.);
#22=ORIENTED_EDGE('',*,*,#20,.F.);
#23=ORIENTED_EDGE('',*,*,#21,.T.);
#24=ORIENTED_EDGE('',*,*,#20,.T.);
#25=ORIENTED_EDGE('',*,*,#21,.F.);
#26=TOROIDAL_SURFACE('',#42,4.5,1.);
#27=ADVANCED_FACE('',(#15),#26,.T.);
#28=CLOSED_SHELL('',(#27));
#29=DERIVED_UNIT_ELEMENT(#31,1.);
#30=DERIVED_UNIT_ELEMENT(#63,-3.);
#31=(
MASS_UNIT()
NAMED_UNIT(*)
SI_UNIT(.KILO.,.GRAM.)
);
#32=DERIVED_UNIT((#29,#30));
#33=MEASURE_REPRESENTATION_ITEM('density measure',
POSITIVE_RATIO_MEASURE(7850.),#32);
#34=PROPERTY_DEFINITION_REPRESENTATION(#39,#36);
#35=PROPERTY_DEFINITION_REPRESENTATION(#40,#37);
#36=REPRESENTATION('material name',(#38),#60);
#37=REPRESENTATION('density',(#33),#60);
#38=DESCRIPTIVE_REPRESENTATION_ITEM('Steel','Steel');
#39=PROPERTY_DEFINITION('material property','material name',#70);
#40=PROPERTY_DEFINITION('material property','density of part',#70);
#41=AXIS2_PLACEMENT_3D('',#53,#45,#46);
#42=AXIS2_PLACEMENT_3D('',#54,#47,#48);
#43=AXIS2_PLACEMENT_3D('',#56,#49,#50);
#44=AXIS2_PLACEMENT_3D('',#57,#51,#52);
#45=DIRECTION('axis',(0.,0.,1.));
#46=DIRECTION('refdir',(1.,0.,0.));
#47=DIRECTION('center_axis',(0.,0.,1.));
#48=DIRECTION('ref_axis',(1.,0.,0.));
#49=DIRECTION('center_axis',(1.22464679914735E-16,-1.,0.));
#50=DIRECTION('ref_axis',(-1.,-1.22464679914735E-16,0.));
#51=DIRECTION('center_axis',(0.,0.,-1.));
#52=DIRECTION('ref_axis',(1.,0.,0.));
#53=CARTESIAN_POINT('',(0.,0.,0.));
#54=CARTESIAN_POINT('Origin',(0.,0.,0.));
#55=CARTESIAN_POINT('',(-3.5,-4.28626379701574E-16,1.22464679914735E-16));
#56=CARTESIAN_POINT('Origin',(-4.5,-5.51091059616309E-16,0.));
#57=CARTESIAN_POINT('Origin',(0.,0.,-1.22464679914735E-16));
#58=UNCERTAINTY_MEASURE_WITH_UNIT(LENGTH_MEASURE(0.01),#62,
'DISTANCE_ACCURACY_VALUE',
'Maximum model space distance between geometric entities at asserted c
onnectivities');
#59=UNCERTAINTY_MEASURE_WITH_UNIT(LENGTH_MEASURE(0.01),#62,
'DISTANCE_ACCURACY_VALUE',
'Maximum model space distance between geometric entities at asserted c
onnectivities');
#60=(
GEOMETRIC_REPRESENTATION_CONTEXT(3)
GLOBAL_UNCERTAINTY_ASSIGNED_CONTEXT((#58))
GLOBAL_UNIT_ASSIGNED_CONTEXT((#62,#64,#65))
REPRESENTATION_CONTEXT('','3D')
);
#61=(
GEOMETRIC_REPRESENTATION_CONTEXT(3)
GLOBAL_UNCERTAINTY_ASSIGNED_CONTEXT((#59))
GLOBAL_UNIT_ASSIGNED_CONTEXT((#62,#64,#65))
REPRESENTATION_CONTEXT('','3D')
);
#62=(
LENGTH_UNIT()
NAMED_UNIT(*)
SI_UNIT(.MILLI.,.METRE.)
);
#63=(
LENGTH_UNIT()
NAMED_UNIT(*)
SI_UNIT($,.METRE.)
);
#64=(
NAMED_UNIT(*)
PLANE_ANGLE_UNIT()
SI_UNIT($,.RADIAN.)
);
#65=(
NAMED_UNIT(*)
SI_UNIT($,.STERADIAN.)
SOLID_ANGLE_UNIT()
);
#66=SHAPE_DEFINITION_REPRESENTATION(#67,#68);
#67=PRODUCT_DEFINITION_SHAPE('',$,#70);
#68=SHAPE_REPRESENTATION('',(#41),#60);
#69=PRODUCT_DEFINITION_CONTEXT('part definition',#74,'design');
#70=PRODUCT_DEFINITION('06-0533 O-Ring 7 x 2','06-0533 O-Ring 7 x 2 v1',
#71,#69);
#71=PRODUCT_DEFINITION_FORMATION('',$,#76);
#72=PRODUCT_RELATED_PRODUCT_CATEGORY('06-0533 O-Ring 7 x 2 v1',
'06-0533 O-Ring 7 x 2 v1',(#76));
#73=APPLICATION_PROTOCOL_DEFINITION('international standard',
'automotive_design',2009,#74);
#74=APPLICATION_CONTEXT(
'Core Data for Automotive Mechanical Design Process');
#75=PRODUCT_CONTEXT('part definition',#74,'mechanical');
#76=PRODUCT('06-0533 O-Ring 7 x 2','06-0533 O-Ring 7 x 2 v1',$,(#75));
#77=PRESENTATION_STYLE_ASSIGNMENT((#78));
#78=SURFACE_STYLE_USAGE(.BOTH.,#79);
#79=SURFACE_SIDE_STYLE('',(#80));
#80=SURFACE_STYLE_FILL_AREA(#81);
#81=FILL_AREA_STYLE('Steel - Satin',(#82));
#82=FILL_AREA_STYLE_COLOUR('Steel - Satin',#83);
#83=COLOUR_RGB('Steel - Satin',0.627450980392157,0.627450980392157,0.627450980392157);
ENDSEC;
END-ISO-10303-21;
