ISO-10303-21;
HEADER;
FILE_DESCRIPTION (( 'STEP AP214' ),
    '1' );
FILE_NAME ('Ä¥µ¶°ô.STEP',
    '2024-02-20T07:48:07',
    ( '' ),
    ( '' ),
    'SwSTEP 2.0',
    'SolidWorks 2014',
    '' );
FILE_SCHEMA (( 'AUTOMOTIVE_DESIGN' ));
ENDSEC;

DATA;
#1 = PRODUCT_DEFINITION ( 'Î´Öª', '', #49, #67 ) ;
#2 = LINE ( 'NONE', #42, #164 ) ;
#3 = AXIS2_PLACEMENT_3D ( 'NONE', #95, #200, #102 ) ;
#4 = DIRECTION ( 'NONE',  ( -1.000000000000000000, 0.0000000000000000000, -0.0000000000000000000 ) ) ;
#5 = FACE_OUTER_BOUND ( 'NONE', #40, .T. ) ;
#6 = APPLICATION_CONTEXT ( 'automotive_design' ) ;
#7 = SURFACE_STYLE_USAGE ( .BOTH. , #184 ) ;
#8 = DIRECTION ( 'NONE',  ( 0.0000000000000000000, 0.0000000000000000000, 1.000000000000000000 ) ) ;
#9 = ADVANCED_FACE ( 'NONE', ( #64 ), #116, .T. ) ;
#10 = DIRECTION ( 'NONE',  ( -0.0000000000000000000, -0.0000000000000000000, -1.000000000000000000 ) ) ;
#11 = CARTESIAN_POINT ( 'NONE',  ( 0.0000000000000000000, 0.0000000000000000000, 50.00000000000000000 ) ) ;
#12 = ADVANCED_FACE ( 'NONE', ( #174 ), #135, .F. ) ;
#13 = COLOUR_RGB ( '',0.7529411764705882200, 0.7529411764705882200, 0.7529411764705882200 ) ;
#14 = MECHANICAL_DESIGN_GEOMETRIC_PRESENTATION_REPRESENTATION (  '', ( #122 ), #154 ) ;
#15 = PRESENTATION_STYLE_ASSIGNMENT (( #20 ) ) ;
#16 = AXIS2_PLACEMENT_3D ( 'NONE', #172, #187, #92 ) ;
#17 = VECTOR ( 'NONE', #198, 1000.000000000000000 ) ;
#18 = VERTEX_POINT ( 'NONE', #57 ) ;
#19 = ORIENTED_EDGE ( 'NONE', *, *, #25, .T. ) ;
#20 = SURFACE_STYLE_USAGE ( .BOTH. , #53 ) ;
#21 = CARTESIAN_POINT ( 'NONE',  ( 3.499999999999999600, -3.500000000000000400, 50.00000000000000000 ) ) ;
#22 = VECTOR ( 'NONE', #44, 1000.000000000000000 ) ;
#23 = ORIENTED_EDGE ( 'NONE', *, *, #54, .T. ) ;
#24 = ADVANCED_BREP_SHAPE_REPRESENTATION ( 'Ä¥µ¶°ô', ( #34, #16 ), #113 ) ;
#25 = EDGE_CURVE ( 'NONE', #152, #111, #120, .T. ) ;
#26 = DIRECTION ( 'NONE',  ( -1.000000000000000000, 0.0000000000000000000, 0.0000000000000000000 ) ) ;
#27 = PLANE ( 'NONE',  #178 ) ;
#28 = VERTEX_POINT ( 'NONE', #115 ) ;
#29 = CARTESIAN_POINT ( 'NONE',  ( -3.500000000000000400, -3.500000000000000400, -50.00000000000000000 ) ) ;
#30 = CARTESIAN_POINT ( 'NONE',  ( 3.499999999999999600, -3.500000000000000400, 50.00000000000000000 ) ) ;
#31 = LINE ( 'NONE', #29, #114 ) ;
#32 = LINE ( 'NONE', #117, #168 ) ;
#33 = PRODUCT_RELATED_PRODUCT_CATEGORY ( 'part', '', ( #74 ) ) ;
#34 = MANIFOLD_SOLID_BREP ( 'Í¹Ì¨-À­Éì1', #177 ) ;
#35 = ORIENTED_EDGE ( 'NONE', *, *, #36, .T. ) ;
#36 = EDGE_CURVE ( 'NONE', #18, #159, #32, .T. ) ;
#37 = VECTOR ( 'NONE', #75, 1000.000000000000000 ) ;
#38 = DIRECTION ( 'NONE',  ( 0.0000000000000000000, 0.0000000000000000000, -1.000000000000000000 ) ) ;
#39 = LINE ( 'NONE', #118, #70 ) ;
#40 = EDGE_LOOP ( 'NONE', ( #180, #23, #35, #69 ) ) ;
#41 =( NAMED_UNIT ( * ) PLANE_ANGLE_UNIT ( ) SI_UNIT ( $, .RADIAN. ) );
#42 = CARTESIAN_POINT ( 'NONE',  ( -3.500000000000000400, 3.500000000000000000, 50.00000000000000000 ) ) ;
#43 = DIRECTION ( 'NONE',  ( -0.0000000000000000000, -0.0000000000000000000, -1.000000000000000000 ) ) ;
#44 = DIRECTION ( 'NONE',  ( -1.000000000000000000, -0.0000000000000000000, -0.0000000000000000000 ) ) ;
#45 = LINE ( 'NONE', #155, #17 ) ;
#46 = EDGE_LOOP ( 'NONE', ( #88, #145, #191, #196 ) ) ;
#47 = EDGE_CURVE ( 'NONE', #99, #103, #128, .T. ) ;
#48 = SURFACE_STYLE_FILL_AREA ( #175 ) ;
#49 = PRODUCT_DEFINITION_FORMATION_WITH_SPECIFIED_SOURCE ( 'ÈÎºÎ', '', #74, .NOT_KNOWN. ) ;
#50 = VECTOR ( 'NONE', #55, 1000.000000000000000 ) ;
#51 = COLOUR_RGB ( '',0.7529411764705882200, 0.7529411764705882200, 0.7529411764705882200 ) ;
#52 = EDGE_LOOP ( 'NONE', ( #98, #72, #202, #186 ) ) ;
#53 = SURFACE_SIDE_STYLE ('',( #58 ) ) ;
#54 = EDGE_CURVE ( 'NONE', #103, #18, #39, .T. ) ;
#55 = DIRECTION ( 'NONE',  ( -0.0000000000000000000, -0.0000000000000000000, -1.000000000000000000 ) ) ;
#56 = CARTESIAN_POINT ( 'NONE',  ( 3.499999999999999600, -3.500000000000000400, -50.00000000000000000 ) ) ;
#57 = CARTESIAN_POINT ( 'NONE',  ( -3.500000000000000400, 3.500000000000000000, 50.00000000000000000 ) ) ;
#58 = SURFACE_STYLE_FILL_AREA ( #77 ) ;
#59 = ORIENTED_EDGE ( 'NONE', *, *, #181, .T. ) ;
#60 = CARTESIAN_POINT ( 'NONE',  ( -3.500000000000000400, -3.500000000000000400, -50.00000000000000000 ) ) ;
#61 = EDGE_CURVE ( 'NONE', #103, #111, #87, .T. ) ;
#62 = PRODUCT_CONTEXT ( 'NONE', #6, 'mechanical' ) ;
#63 = CARTESIAN_POINT ( 'NONE',  ( 3.499999999999999600, 3.500000000000000000, -50.00000000000000000 ) ) ;
#64 = FACE_OUTER_BOUND ( 'NONE', #132, .T. ) ;
#65 =( NAMED_UNIT ( * ) PLANE_ANGLE_UNIT ( ) SI_UNIT ( $, .RADIAN. ) );
#66 = APPLICATION_PROTOCOL_DEFINITION ( 'draft international standard', 'automotive_design', 1998, #6 ) ;
#67 = PRODUCT_DEFINITION_CONTEXT ( 'detailed design', #169, 'design' ) ;
#68 = PLANE ( 'NONE',  #3 ) ;
#69 = ORIENTED_EDGE ( 'NONE', *, *, #76, .T. ) ;
#70 = VECTOR ( 'NONE', #138, 1000.000000000000000 ) ;
#71 = VERTEX_POINT ( 'NONE', #60 ) ;
#72 = ORIENTED_EDGE ( 'NONE', *, *, #182, .F. ) ;
#73 = DIRECTION ( 'NONE',  ( 0.0000000000000000000, -1.000000000000000000, 0.0000000000000000000 ) ) ;
#74 = PRODUCT ( 'Ä¥µ¶°ô', 'Ä¥µ¶°ô', '', ( #62 ) ) ;
#75 = DIRECTION ( 'NONE',  ( 0.0000000000000000000, 1.000000000000000000, 0.0000000000000000000 ) ) ;
#76 = EDGE_CURVE ( 'NONE', #159, #99, #83, .T. ) ;
#77 = FILL_AREA_STYLE ('',( #167 ) ) ;
#78 = CARTESIAN_POINT ( 'NONE',  ( 3.499999999999999600, -3.500000000000000400, 50.00000000000000000 ) ) ;
#79 = ORIENTED_EDGE ( 'NONE', *, *, #182, .T. ) ;
#80 = ORIENTED_EDGE ( 'NONE', *, *, #144, .F. ) ;
#81 = PLANE ( 'NONE',  #176 ) ;
#82 = APPLICATION_PROTOCOL_DEFINITION ( 'draft international standard', 'automotive_design', 1998, #169 ) ;
#83 = LINE ( 'NONE', #136, #201 ) ;
#84 = VECTOR ( 'NONE', #149, 1000.000000000000000 ) ;
#85 = DIRECTION ( 'NONE',  ( -0.0000000000000000000, -1.000000000000000000, -0.0000000000000000000 ) ) ;
#86 =( NAMED_UNIT ( * ) SI_UNIT ( $, .STERADIAN. ) SOLID_ANGLE_UNIT ( ) );
#87 = LINE ( 'NONE', #183, #50 ) ;
#88 = ORIENTED_EDGE ( 'NONE', *, *, #144, .T. ) ;
#89 = CARTESIAN_POINT ( 'NONE',  ( -3.500000000000000400, 3.500000000000000000, 50.00000000000000000 ) ) ;
#90 = DIRECTION ( 'NONE',  ( -1.000000000000000000, 0.0000000000000000000, -0.0000000000000000000 ) ) ;
#91 = DIRECTION ( 'NONE',  ( -0.0000000000000000000, -1.000000000000000000, -0.0000000000000000000 ) ) ;
#92 = DIRECTION ( 'NONE',  ( 1.000000000000000000, 0.0000000000000000000, 0.0000000000000000000 ) ) ;
#93 = FACE_OUTER_BOUND ( 'NONE', #46, .T. ) ;
#94 =( NAMED_UNIT ( * ) SI_UNIT ( $, .STERADIAN. ) SOLID_ANGLE_UNIT ( ) );
#95 = CARTESIAN_POINT ( 'NONE',  ( -3.500000000000000400, -3.500000000000000400, 50.00000000000000000 ) ) ;
#96 = PRESENTATION_LAYER_ASSIGNMENT (  '', '', ( #122 ) ) ;
#97 = PRODUCT_DEFINITION_SHAPE ( 'NONE', 'NONE',  #1 ) ;
#98 = ORIENTED_EDGE ( 'NONE', *, *, #160, .T. ) ;
#99 = VERTEX_POINT ( 'NONE', #78 ) ;
#100 =( NAMED_UNIT ( * ) PLANE_ANGLE_UNIT ( ) SI_UNIT ( $, .RADIAN. ) );
#101 = DIRECTION ( 'NONE',  ( 1.000000000000000000, 0.0000000000000000000, 0.0000000000000000000 ) ) ;
#102 = DIRECTION ( 'NONE',  ( 0.0000000000000000000, -0.0000000000000000000, 1.000000000000000000 ) ) ;
#103 = VERTEX_POINT ( 'NONE', #147 ) ;
#104 =( LENGTH_UNIT ( ) NAMED_UNIT ( * ) SI_UNIT ( .MILLI., .METRE. ) );
#105 = PLANE ( 'NONE',  #165 ) ;
#106 = FILL_AREA_STYLE_COLOUR ( '', #51 ) ;
#107 = ORIENTED_EDGE ( 'NONE', *, *, #25, .F. ) ;
#108 = ORIENTED_EDGE ( 'NONE', *, *, #36, .F. ) ;
#109 = AXIS2_PLACEMENT_3D ( 'NONE', #89, #73, #148 ) ;
#110 = FACE_OUTER_BOUND ( 'NONE', #194, .T. ) ;
#111 = VERTEX_POINT ( 'NONE', #63 ) ;
#112 = UNCERTAINTY_MEASURE_WITH_UNIT (LENGTH_MEASURE( 1.000000000000000100E-005 ), #104, 'distance_accuracy_value', 'NONE');
#113 =( GEOMETRIC_REPRESENTATION_CONTEXT ( 3 ) GLOBAL_UNCERTAINTY_ASSIGNED_CONTEXT ( ( #112 ) ) GLOBAL_UNIT_ASSIGNED_CONTEXT ( ( #104, #41, #156 ) ) REPRESENTATION_CONTEXT ( 'NONE', 'WORKASPACE' ) );
#114 = VECTOR ( 'NONE', #158, 1000.000000000000000 ) ;
#115 = CARTESIAN_POINT ( 'NONE',  ( -3.500000000000000400, 3.500000000000000000, -50.00000000000000000 ) ) ;
#116 = PLANE ( 'NONE',  #141 ) ;
#117 = CARTESIAN_POINT ( 'NONE',  ( -3.500000000000000400, -3.500000000000000400, 50.00000000000000000 ) ) ;
#118 = CARTESIAN_POINT ( 'NONE',  ( -3.500000000000000400, 3.500000000000000000, 50.00000000000000000 ) ) ;
#119 = LINE ( 'NONE', #30, #193 ) ;
#120 = LINE ( 'NONE', #56, #37 ) ;
#121 =( LENGTH_UNIT ( ) NAMED_UNIT ( * ) SI_UNIT ( .MILLI., .METRE. ) );
#122 = STYLED_ITEM ( 'NONE', ( #15 ), #34 ) ;
#123 = CARTESIAN_POINT ( 'NONE',  ( -3.500000000000000400, -3.500000000000000400, 50.00000000000000000 ) ) ;
#124 = UNCERTAINTY_MEASURE_WITH_UNIT (LENGTH_MEASURE( 1.000000000000000100E-005 ), #121, 'distance_accuracy_value', 'NONE');
#125 = DIRECTION ( 'NONE',  ( 0.0000000000000000000, 0.0000000000000000000, -1.000000000000000000 ) ) ;
#126 = CARTESIAN_POINT ( 'NONE',  ( -3.500000000000000400, 3.500000000000000000, -50.00000000000000000 ) ) ;
#127 = ADVANCED_FACE ( 'NONE', ( #110 ), #105, .F. ) ;
#128 = LINE ( 'NONE', #21, #84 ) ;
#129 = ORIENTED_EDGE ( 'NONE', *, *, #47, .F. ) ;
#130 =( GEOMETRIC_REPRESENTATION_CONTEXT ( 3 ) GLOBAL_UNCERTAINTY_ASSIGNED_CONTEXT ( ( #124 ) ) GLOBAL_UNIT_ASSIGNED_CONTEXT ( ( #121, #65, #94 ) ) REPRESENTATION_CONTEXT ( 'NONE', 'WORKASPACE' ) );
#131 = VECTOR ( 'NONE', #91, 1000.000000000000000 ) ;
#132 = EDGE_LOOP ( 'NONE', ( #107, #80, #142, #153 ) ) ;
#133 = ORIENTED_EDGE ( 'NONE', *, *, #190, .T. ) ;
#134 = LINE ( 'NONE', #126, #22 ) ;
#135 = PLANE ( 'NONE',  #109 ) ;
#136 = CARTESIAN_POINT ( 'NONE',  ( -3.500000000000000400, -3.500000000000000400, 50.00000000000000000 ) ) ;
#137 = STYLED_ITEM ( 'NONE', ( #173 ), #24 ) ;
#138 = DIRECTION ( 'NONE',  ( -1.000000000000000000, -0.0000000000000000000, -0.0000000000000000000 ) ) ;
#139 = DIRECTION ( 'NONE',  ( 0.0000000000000000000, 0.0000000000000000000, -1.000000000000000000 ) ) ;
#140 = CARTESIAN_POINT ( 'NONE',  ( -3.500000000000000400, -3.500000000000000400, -50.00000000000000000 ) ) ;
#141 = AXIS2_PLACEMENT_3D ( 'NONE', #195, #38, #4 ) ;
#142 = ORIENTED_EDGE ( 'NONE', *, *, #181, .F. ) ;
#143 = ORIENTED_EDGE ( 'NONE', *, *, #61, .F. ) ;
#144 = EDGE_CURVE ( 'NONE', #71, #152, #31, .T. ) ;
#145 = ORIENTED_EDGE ( 'NONE', *, *, #190, .F. ) ;
#146 = ORIENTED_EDGE ( 'NONE', *, *, #163, .F. ) ;
#147 = CARTESIAN_POINT ( 'NONE',  ( 3.499999999999999600, 3.500000000000000000, 50.00000000000000000 ) ) ;
#148 = DIRECTION ( 'NONE',  ( 0.0000000000000000000, -0.0000000000000000000, -1.000000000000000000 ) ) ;
#149 = DIRECTION ( 'NONE',  ( 0.0000000000000000000, 1.000000000000000000, 0.0000000000000000000 ) ) ;
#150 = CARTESIAN_POINT ( 'NONE',  ( 3.499999999999999600, -3.500000000000000400, -50.00000000000000000 ) ) ;
#151 = SHAPE_DEFINITION_REPRESENTATION ( #97, #24 ) ;
#152 = VERTEX_POINT ( 'NONE', #150 ) ;
#153 = ORIENTED_EDGE ( 'NONE', *, *, #160, .F. ) ;
#154 =( GEOMETRIC_REPRESENTATION_CONTEXT ( 3 ) GLOBAL_UNCERTAINTY_ASSIGNED_CONTEXT ( ( #189 ) ) GLOBAL_UNIT_ASSIGNED_CONTEXT ( ( #166, #100, #86 ) ) REPRESENTATION_CONTEXT ( 'NONE', 'WORKASPACE' ) );
#155 = CARTESIAN_POINT ( 'NONE',  ( -3.500000000000000400, -3.500000000000000400, 50.00000000000000000 ) ) ;
#156 =( NAMED_UNIT ( * ) SI_UNIT ( $, .STERADIAN. ) SOLID_ANGLE_UNIT ( ) );
#157 = ADVANCED_FACE ( 'NONE', ( #5 ), #27, .F. ) ;
#158 = DIRECTION ( 'NONE',  ( 1.000000000000000000, 0.0000000000000000000, 0.0000000000000000000 ) ) ;
#159 = VERTEX_POINT ( 'NONE', #123 ) ;
#160 = EDGE_CURVE ( 'NONE', #111, #28, #134, .T. ) ;
#161 = EDGE_LOOP ( 'NONE', ( #59, #146, #108, #79 ) ) ;
#162 = LINE ( 'NONE', #140, #131 ) ;
#163 = EDGE_CURVE ( 'NONE', #159, #71, #45, .T. ) ;
#164 = VECTOR ( 'NONE', #10, 1000.000000000000000 ) ;
#165 = AXIS2_PLACEMENT_3D ( 'NONE', #188, #26, #8 ) ;
#166 =( LENGTH_UNIT ( ) NAMED_UNIT ( * ) SI_UNIT ( .MILLI., .METRE. ) );
#167 = FILL_AREA_STYLE_COLOUR ( '', #13 ) ;
#168 = VECTOR ( 'NONE', #85, 1000.000000000000000 ) ;
#169 = APPLICATION_CONTEXT ( 'automotive_design' ) ;
#170 = CARTESIAN_POINT ( 'NONE',  ( -3.500000000000000400, -3.500000000000000400, 50.00000000000000000 ) ) ;
#171 = ADVANCED_FACE ( 'NONE', ( #179 ), #81, .F. ) ;
#172 = CARTESIAN_POINT ( 'NONE',  ( 0.0000000000000000000, 0.0000000000000000000, 0.0000000000000000000 ) ) ;
#173 = PRESENTATION_STYLE_ASSIGNMENT (( #7 ) ) ;
#174 = FACE_OUTER_BOUND ( 'NONE', #52, .T. ) ;
#175 = FILL_AREA_STYLE ('',( #106 ) ) ;
#176 = AXIS2_PLACEMENT_3D ( 'NONE', #170, #185, #125 ) ;
#177 = CLOSED_SHELL ( 'NONE', ( #127, #12, #171, #199, #157, #9 ) ) ;
#178 = AXIS2_PLACEMENT_3D ( 'NONE', #11, #139, #90 ) ;
#179 = FACE_OUTER_BOUND ( 'NONE', #161, .T. ) ;
#180 = ORIENTED_EDGE ( 'NONE', *, *, #47, .T. ) ;
#181 = EDGE_CURVE ( 'NONE', #28, #71, #162, .T. ) ;
#182 = EDGE_CURVE ( 'NONE', #18, #28, #2, .T. ) ;
#183 = CARTESIAN_POINT ( 'NONE',  ( 3.499999999999999600, 3.500000000000000000, 50.00000000000000000 ) ) ;
#184 = SURFACE_SIDE_STYLE ('',( #48 ) ) ;
#185 = DIRECTION ( 'NONE',  ( 1.000000000000000000, 0.0000000000000000000, 0.0000000000000000000 ) ) ;
#186 = ORIENTED_EDGE ( 'NONE', *, *, #61, .T. ) ;
#187 = DIRECTION ( 'NONE',  ( 0.0000000000000000000, 0.0000000000000000000, 1.000000000000000000 ) ) ;
#188 = CARTESIAN_POINT ( 'NONE',  ( 3.499999999999999600, -3.500000000000000400, 50.00000000000000000 ) ) ;
#189 = UNCERTAINTY_MEASURE_WITH_UNIT (LENGTH_MEASURE( 1.000000000000000100E-005 ), #166, 'distance_accuracy_value', 'NONE');
#190 = EDGE_CURVE ( 'NONE', #99, #152, #119, .T. ) ;
#191 = ORIENTED_EDGE ( 'NONE', *, *, #76, .F. ) ;
#192 = PRESENTATION_LAYER_ASSIGNMENT (  '', '', ( #137 ) ) ;
#193 = VECTOR ( 'NONE', #43, 1000.000000000000000 ) ;
#194 = EDGE_LOOP ( 'NONE', ( #19, #143, #129, #133 ) ) ;
#195 = CARTESIAN_POINT ( 'NONE',  ( 0.0000000000000000000, 0.0000000000000000000, -50.00000000000000000 ) ) ;
#196 = ORIENTED_EDGE ( 'NONE', *, *, #163, .T. ) ;
#197 = MECHANICAL_DESIGN_GEOMETRIC_PRESENTATION_REPRESENTATION (  '', ( #137 ), #130 ) ;
#198 = DIRECTION ( 'NONE',  ( -0.0000000000000000000, -0.0000000000000000000, -1.000000000000000000 ) ) ;
#199 = ADVANCED_FACE ( 'NONE', ( #93 ), #68, .F. ) ;
#200 = DIRECTION ( 'NONE',  ( 0.0000000000000000000, 1.000000000000000000, 0.0000000000000000000 ) ) ;
#201 = VECTOR ( 'NONE', #101, 1000.000000000000000 ) ;
#202 = ORIENTED_EDGE ( 'NONE', *, *, #54, .F. ) ;
ENDSEC;
END-ISO-10303-21;
